Misc. Unsigned Bands - Symphonia - Solo Text Guitar Tab

Learn the song with the online tablature player
Symphonia's
~Solo~
Standard or drop D, wont matter..
 |-16h18p17--15----------15b16r13----|
 |---------14--16--15-[slow release]-|
 |---------------18------------------|
 |-----------------------------------|
 |-----------------------------------|
 |-----------------------------------|

 |-15-17--15---------------------------------------------------|
 |------17--17-17--15-17--15-----------------------------------|
 |----------------------16--16-16--14-16--14-------------------|
 |--------------------------------------17--16-17\-12-14-12----|
 |----------------------------------------------------------14-|
 |-------------------------------------------------------------|

 |-19p15---17p15---19p15---17p15---19p15-----|
 |------15------15------15------15------15/--|
 |-------------------------------------------|
 |-------------------------------------------|
 |-------------------------------------------|
 |-------------------------------------------|

 |-20p17---19p17---20p17---19p17---20p17-----|
 |------17------17------17------17------17/--|
 |-------------------------------------------|
 |-------------------------------------------|
 |-------------------------------------------|
 |-------------------------------------------|

 |----12-12h17p12---------------------------|
 |-15------------15p12--12---------------14-|
 |--------------------14--14b16r14-12----14-|
 |------------------------------------14----|
 |------------------------------------------|
 |------------------------------------------|

 |-------------------------------------------12-|
 |----------11-11----11-13-10-------------13----|
 |----------------12----------10-------12-------|
 |-12-12-12----------------------10-14----------|
 |----------------------------------------------|
 |----------------------------------------------|

 |-15----15s13----13s11----------------------------|
 |----13-------13-------11-16s15----15s13----13s11-|
 |-------------------------------14-------12-------|
 |-------------------------------------------------|
 |-------------------------------------------------|
 |-------------------------------------------------|

end on:
 |--16h14h11-14h11h9-----------------------------------------------|
 |-------------------16h14h11-14h11h9-14-9-7-----------------------|
 |-------------------------------------------15h11h8-13h8h6-11h6h8-|
 |-----------------------------------------------------------------|
 |-----------------------------------------------------------------|
 |-----------------------------------------------------------------|


   - natural harmonic
[n]  - artificial harmonic
n(n) - tapped harmonic
 ~   - vibrato
 tr  - trill
 T   - tap
 TP  - trem. picking
 PM  - palm muting
\n/  - tremolo bar dip; n = amount to dip
 \n  - tremolo bar down
 n/  - tremolo bar up
/n\  - tremolo bar inverted dip
 =   - hold bend; also acts as connecting device for hammers/pulls
 <>  - volume swell (louder/softer)
 x   - on rhythm slash represents muted slash
 o   - on rhythm slash represents single note slash