Misc. Unsigned Bands - Synergy - When I Will Be Gone Text Guitar Tab

Learn the song with the online tablature player
--------------------------------------------------------|
--------------------------------------------------------|
--------------------------------------------------------|
--------------------------------------------------------|
---2-2-22-2-2-4-5-5-55-5-5-4-0-0-00-5-5-4---------------|
------------------------------------------3-3-33--3-3-5-|

--------------------------------------------------------|
--------------------------------------------------------|
--------------------------------------------------------|
--------------------------------------------------------|
---2-2-22-2-2-4-5-5-55-5-5-4-0-0-00-5-5-4---------------|
------------------------------------------3-3-33--3-3-5-|

---------------------------------------------------------|
---------------------------------------------------------|
---4-4-44-4-4-6-7-7-77-7-7-6-2-2-22-7-7-6----------------|
---4-4-44-4-4-6-7-7-77-7-7-6-2-2-22-7-7-6-5-5-55---------|
---2-2-22-2-2-4-5-5-55-5-5-4-0-0-00-5-5-4-5-5-55--5-5-7--|
------------------------------------------3-3-33--3-3-5--|

---------------------------------------------------------|
---------------------------------------------------------|
---4-4-44-4-4-6-7-7-77-7-7-6-2-2-22-7-7-6----------------|
---4-4-44-4-4-6-7-7-77-7-7-6-2-2-22-7-7-6-5-5-55---------|
---2-2-22-2-2-4-5-5-55-5-5-4-0-0-00-5-5-4-5-5-55---------|
------------------------------------------3-3-33---------|

---------------------------------------------------------|
---------------------------------------------------------|
----------------------------------------2-2--------------|
--2-4-4-2-4-4-2-4-2-0---2-4-4-2-4-4-2-4-----4-2-7-4-2-6--|
------------------------------------------------5-----4--|
---------------------------------------------------------|

---------------------------------------------------------|
---------------------------------------------------------|
---4-4-44-4-4-6-7-7-77-7-7-6-2-2-22-7-7-6----------------|
---4-4-44-4-4-6-7-7-77-7-7-6-2-2-22-7-7-6-5-5-55---------|
---2-2-22-2-2-4-5-5-55-5-5-4-0-0-00-5-5-4-5-5-55--5-5-7--|
------------------------------------------3-3-33--3-3-5--|

------------------------------------------------------------------|
------------------------------------------------------------------|
------------------------------------------------------------------|
---444444444444422677777777777776642222222222222776---------------|
---2222222222222004555555555555544200000000000005545555555555555--|
---------------------------------------------------3333333333333--|

------------------------------------------------------------------|
------------------------------------------------------------------|
------------------------------------------------------------------|
---444444444444422677777777777776642222222222222776---------------|
---2222222222222004555555555555544200000000000005545555555555555--|
---------------------------------------------------3333333333333--|

--------------------------------|
--------------------------------|
---4~------7~------2~-----------|[x2]
---4~------7~------2~------5~---|
---2~------5~------0~------5~---|
---------------------------3~---|

---------------------------------------------------------|
---------------------------3-----------------------------|
---2-4-2-------------2-4-2----4-2-0----2-0---------------|
---------4--2-0-2-4-----------------4------4-4--2-0-2-4--|
---------------------------------------------------------|
---------------------------------------------------------|