Misc. Unsigned Bands - Take It To Heart Tuesday - This Life Text Guitar Tab

Learn the song with the online tablature player
This Is an up and coming artist out of Southern California (SD). I watched them play a
show and recorded this on my camera phone then tabbed it out. You should watch for these
guys!!
1.                           This Life - Take It To Heart Tuesday

     A
e|-------0-------0---------0-----------|
B|-----3-------3-------3-----3---------|
G|---2-------2-------2---2-----2--0----|
D|—0-------0-------0-------------------|
A|-------------------------------------|
E|-------------------------------------|

e|-------0-------0---------0-----------|
B|-----3-------3-------3-----3—--3-----|
G|—--0-------0-------0---0-----0-------|
D|-------------------------------------|
A|-3-------3-------3-------------------|
E|-------------------------------------|

e|-------0--------3-------2-----0------|
B|-----3--------3-------3---------3----|
G|—--2--------2-------2-------2--------|
D|-0--------0-------0-------0----------|
A|-------------------------------------|
E|-------------------------------------|

e|-------0-------3-------2-----0-------|
B|-----3-------3-------3---------3-----|
G|—--0-------0-------0-------0---------|
D|-------------------------------------|
A|-3-------3-------3-------3-----------|
E|-------------------------------------|

e|-------0------3---------0-----0-----------0-0h2p0-----0--2--3--2----------|
B|-----3-----—----0-----3---------3-------3---------3--------------3--------|
G|—-—2--------0-------0-------2----2—---2-------------2--------------2-0----|
D|-0----------------------------------0-------------------------------------|
A|---------3--------2-------0-----------------------------------------------|
E|--------------------------------------------------------------------------|

| /  slide up
| \  slide down
| h  hammer-on
| p  pull-off
| ~  vibrato
| +  harmonic
| x  Mute note