Misc. Unsigned Bands - Taken By Trees - Tell Me Text Guitar Tab

Learn song with the online tabulature player
My first tab, with help from Emily Crandall

Standard Tuning, No Capo

Part I:
  G D                               B D
e|----------------|----------------|----------------|----------------|
B|----------------|----------------|----------------|----------------|
G|--7---7---7---7-|--7---7---7---7-|--7---7---7---7-|--7---7---7---7-|
D|5---5---5---5---|5---5---5---5---|9---9---9---9---|9---9---9---9---|
A|----------------|----------------|----------------|----------------|
E|----------------|----------------|----------------|----------------|

Part II:
  F# A                                            G E
e|-----------------------|-----------------------|----------------|----------------|
B|---10----10----10----10|---10----10----10----10|--8---8---8---8-|--8---8---8---8-|
G|11*---11----11----11---|11----11----11----11---|9*--9---9---9---|9---9---9---9---|
D|-----------------------|-----------------------|----------------|----------------|
A|-----------------------|-----------------------|----------------|----------------|
E|-----------------------|-----------------------|----------------|----------------|
    *use sixteenth notes

It goes:
Part I  x6
Part II x2
Part I  x9
Part II x4
Part I  x3