Misc. Unsigned Bands - Taking Dawn - Time To Burn Text Guitar Tab

Learn the song with the online tablature player
INTRO

e-------------------------------------------------|
B-6-6-6--6--6--6--6--6--6--6--6--6--6--6--6-------|
G-5-5-5--5--5--5--5--5--5--5--5--5--5--5--5-------|
D-3-3-3--3--3--3--3--3--3--3--3--3--3--3--3--0----|
A-5-5-5--5--5--5--5--5--5--5--5--5--5--5--5-------|
E-0-0-0--0--0--0--0--0--0--0--0--0--0--0--0----3~-|

e----------------------------------| pick these notes as harmonics.
B----------------------------------| they can also be tremolo picked if you find the
G----------------------------------| speed difficult
D----------------------------------|
A----------------------------------|
E-66666666666666666665555444433322-|

CHORUS
note: all the slides to 12 are just rough estimates. don't strictly adhere to them.
e---------------------------------------------------| X2
B---------------------------------------------------|
G---------------------------------------------------|
D-----------------------------------0---3-----------|
A-----------------------------------0---3-----------|
E-0000003/12-0-3-5-0000003/12-0-3-5-0---3-6-5-3-0-3-|

e----------------------------------------------------3/-|
B----------------------------------------------------3/-|
G--------------------------------------12-1212-12-12----|
D-0-------------------------------------------0---------|
A-0------------------------------------10-1010010-10----|
E-0-0000/12-0-0-3-00000/6053-3-0-5-5-5--------0---------|

e------------------------------------------|
B------------------------------------------|
G------------------------------------------|
D-0----------------------------------------|
A-0----------------------------5-4-3-------|
E-0-0000/12-0-0-3-00005p0h50000------6-5-3-|

VERSE

e-------------------------------------------------|
B-6-6-6--6--6--6--6--6--6--6--6--6--6--6--6-------|
G-5-5-5--5--5--5--5--5--5--5--5--5--5--5--5-------|
D-3-3-3--3--3--3--3--3--3--3--3--3--3--3--3--0----|
A-5-5-5--5--5--5--5--5--5--5--5--5--5--5--5-------|
E-0-0-0--0--0--0--0--0--0--0--0--0--0--0--0----3~-|

e-------------------------------------------| same as before
B-------------------------------------------|
G-------------------------------------------|
D-------------------------------------------|
A-----------------0-0-3-0-0-3-0-0-3-------3-|
E-666666655443322-0-0-3-0-0-3-0-0-3-0-3-0---|

CHORUS

e---------------------------------------------------| X2
B---------------------------------------------------|
G---------------------------------------------------|
D-----------------------------------0---3-----------|
A-----------------------------------0---3-----------|
E-0000003/12-0-3-5-0000003/12-0-3-5-0---3-6-5-3-0-3-|

e----------------------------------------------------|
B----------------------------------------------------|
G--------------------------------------10-1010-10-10-|
D-0-------------------------------------------0------|
A-0------------------------------------8--8-8-08--8--|
E-0-0000/12-0-0-3-00000/6053-3-0-5-5-5--------0------|

e------------------------------------------|
B------------------------------------------|
G------------------------------------------|
D-0----------------------------------------|
A-0----------------------------5-4-3-------|
E-0-0000/12-0-0-3-00005p0h50000------6-5-3-|

e---------------------------------------------|
B---------------------------------------------|
G-------------------------------10-1010-10-10-|
D-0-----0-----3-----0-----5------------0------|
A-0-0-0-0-0-0-3-0-0-0-0-0-5-5-5-8--8-8-08--8--|
E-0-0-0-0-0-0-3-0-0-0-0-0-5-5-5--------0------|

e------------------------------------------|
B------------------------------------------|
G------------------------------------------|
D-0----------------------------------------|
A-0----------------------------5-4-3-------|
E-0-0000/12-0-0-3-00005p0h50000------6-5-3-|

SOLO!
played quite fast
e-------------------------------------------------|
B-17-13-12-13-12----------12-13-12-13-17-13-12-13-|
G----------------14----14-------------------------|
D-------------------14----------------------------|
A-------------------------------------------------|
E-------------------------------------------------|

e-------------------------------------------------|
B-17-13-12-13-12----------12-13-12-13-17-13-12-13-|
G----------------14----14-------------------------|
D-------------------14----------------------------|
A-------------------------------------------------|
E-------------------------------------------------|

e-15b17-17-15-17-13-17-12-17-10-17-----10b12r10-------------------|
B----------------------------------12~~---------15b17r15-15-13-12-|
G-----------------------------------------------------------------|
D-----------------------------------------------------------------|
A-----------------------------------------------------------------|
E-----------------------------------------------------------------|

e-------------------------------------------------------------|
B-15b17r15-15b17r15-15-13-15-13----15-13----15-13----15-13----|
G-------------------------------14-------14-------14-------14-|
D-------------------------------------------------------------|
A-------------------------------------------------------------|
E-------------------------------------------------------------|

e--------------------|
B-16-13----13-15b17~-|
G-------14-----------|
D--------------------|
A--------------------|
E--------------------|

e-17~15~-------------------------------------------------------------|
B-------15b17r15-12-15-15b17~-15-12-------------------------15b17r15-|
G-----------------------------------14-12-14b16r14-12----12----------|
D-----------------------------------------------------14-------------|
A--------------------------------------------------------------------|
E--------------------------------------------------------------------|

e-------------------15b17~-12----12-|
B-15b17r15-12----12-----------15----|
G-------------14--------------------|
D-----------------------------------|
A-----------------------------------|
E-----------------------------------|

e-------------------------------------------|
B-12h15t20p12h15t20-12h15t22p15p12t21p15p12-|
G-------------------------------------------|
D-------------------------------------------|
A-------------------------------------------|
E-------------------------------------------|

e-18h19p18p15h17p15-18h19p18p15h17p15-|
B-------------------------------------|
G-------------------------------------|
D-------------------------------------|
A-------------------------------------|
E-------------------------------------|

e-17b19r17p15------17b19~17b19-17b20-22-21-20--16-15-13-22b24~-|
B------------15b17~--------------------------------------------|
G--------------------------------------------------------------|
D--------------------------------------------------------------|
A--------------------------------------------------------------|
E--------------------------------------------------------------|
muck around with the whammy for a bit on the last note.
BRIDGE
theres a it of effects wizardry, then:
e-------------------------------------------------|
B-------------------------------------------------|
G-------------------------------------------------|
D-------------------------------------------------|
A-0-0-0-0-0-0-0-0-3-3-3-3-3-3-3-3-5-5-5-5-5-5-5-5-|
E-0-0-0-0-0-0-0-0-3-3-3-3-3-3-3-3-5-5-5-5-5-5-5-5-|

CHORUS

e----------------------------------------------------3/-|
B----------------------------------------------------3/-|
G--------------------------------------10-1010-10-10----|
D-0-------------------------------------------0---------|
A-0------------------------------------18-8-8-08--8-----|
E-0-0000/12-0-0-3-00000/6053-3-0-5-5-5--------0---------|

e------------------------------------------|
B------------------------------------------|
G------------------------------------------|
D-0----------------------------------------|
A-0----------------------------5-4-3-------|
E-0-0000/12-0-0-3-00005p0h50000------6-5-3-|

e--------------------------------------------|
B--------------------------------------------|
G--------------------------------------------|
D-2-------------------------------5-55-2-5-5-|
A-2------------------------------------------|
E-2-22225-2-2-5~-222225-2-2-7-2222-----------|

e------------------------------------------------------------|
B------------------------------------------------------------|
G------------------------------------9-8-7-------------------|
D-2----------------------------------------8-7-5-------------|
A-2----------------------------------------------7-6-5-------|
E-2-22225-2-2-5~-222225-227p2h7-2222-------------------8-7-5-|

e-----------|
B-----------|
G-----------|
D-----------|
A-2222-2222-|
E-2222-2222-|