Misc. Unsigned Bands - Tartan Specials - Well Be Coming Text Guitar Tab

Learn song with the online tabulature player
hey, my friend worked this out on the keyboard and i've managed to tab it


E]----7-7----7---7-7----7---7-7----10-9-7-----|
B]--------10---------10---------10--------10--|
G]--------------------------------------------|
D]--------------------------------------------|
A]--------------------------------------------|
E]--------------------------------------------|

E]----------7-10-9-7-7---------------7--------|
B]----1O-10------------10-7-----7-10---7------|
G]--------------------------7-7----------9-7--|
D]--------------------------------------------|
A]--------------------------------------------|
E]--------------------------------------------|

Put on a good bit of overdrive and it will sound perfect.