Misc. Unsigned Bands - Tejb - Thats What She Said Text Guitar Tab

Learn the song with the online tablature player
                         Tejb - That's What She Said

Intro

Instrument 1
e|---------|
B|---------|
G|---4-----|
D|---4-5---|
A|---2-5---|
E|-----3---|

Instrument 2
e|-----------------------------------------|
B|--121212121212121212121212121212121212---| (12s)
G|-----------------------------------------|
D|-----------------------------------------|
A|-----------------------------------------|
E|-----------------------------------------|

Instrument 3 doing the tune
e|-----------------------------------------------------------------------|
B|-----------------------------------------------------------------------|
G|------------------------------9~------------------11--11-9----9--------|
D|--9-11-12--12~-9-12--12~-9-12------9-11-12--12~-9----------12----------|
A|-----------------------------------------------------------------------|
E|-----------------------------------------------------------------------|

e|-----------------------------------------------------------------------|
B|-----------------------------------------------------------------------|
G|------------------------------9~---11-11-9------9--9-------------------|
D|--9-11-12--12~-9-12--12~-9-12--------------12-9------12-11-9-----------|
A|-----------------------------------------------------------------------|
E|-----------------------------------------------------------------------|

Verses

e|---------|
B|---------|
G|---------|
D|---------| Just repeat throughout, experiment with chords and everything.
A|---2-----|
E|-----3---|

Chorus

e|---------------------|
B|---------------------|
G|--4-----------7------| Not sure about this; the drums are too loud.
D|--4---5---7---7------| I'm sure you can work out the timing of it all.
A|--2---5---7---5------|
E|------3---5----------|
        ^
    This chord is probably done an octave or two higher...
                                                 maybe three octaves.

The tune comes in a few times in some choruses.

Bridge

Instrument 1
e|--------------------------|
B|--------------------------|
G|--------------------------|
D|--------------------------|
A|--2------4------0-2-------|
E|--------------------------|

Instrment 2 doing harmony comes in on the second time
e|--------------------------|
B|--------------------------|
G|--------------------------|
D|--------------------------|
A|--5------7------4-2-------|
E|--------------------------|

Instrument 3 comes in on the second time doing harmony aswell
e|--------------------------|
B|--------------------------|
G|--4------6------2-4-------|
D|--------------------------|
A|--------------------------|
E|--------------------------|

| /   slide up
| \   slide down
| h   hammer-on
| p   pull-off
| ~   vibrato
| +   harmonic
| x   Mute note
| b   Bend
| pb  Pre-bend
| br  Bend release
| pbr Pre-bend release
| brb Bend release bend