Misc. Unsigned Bands - The Armonist - So Tired Text Guitar Tab

Learn the song with the online tablature player
                             SO TIRED - The Armonist

intro
Dmad9   Bb#11   Dmad9   C  Dmad9   Bb#11   Fad9   G/A

Verse
  Dmad9     Bb#11           Dmad9             C               Dmad9
e|0---------0---------------0-----------------0---------------0--------------|
B|6---------3---------------6-----------------5---------------6--------------|
G|7---------0---------------7-----------------0---------------7--------------|
D|7---------3---------------7-----------------5---------------7--------------|
A|5---------1---------------5-----------------3---------------5--------------|
E|---------------------------------------------------------------------------|
  It’s so cold, so dark tonight, That I feel sad but in my mind,

            Bb#11                Fad9          Gm   A
e|----------0--------------------3-------------3----5------------------------|
B|----------3--------------------1-------------3----5------------------------|
G|----------0--------------------2-------------3----6------------------------|
D|----------3--------------------3-------------5----7------------------------|
A|----------1----------------------------------5----7------------------------|
E|-------------------------------1-------------3----5------------------------|
  I’m waiting for you trough the night. And I cry, cry.

Chorus
  Dm         Fad9                     Bb      Asus4   A
e|5----------3---------------------------------------------------------------|
B|6----------1------------------------3-----------3---3----------------------|
G|7----------2------------------------3-----------2---3----------------------|
D|7----------3------------------------3-----------2---3----------------------|
A|5-----------------------------------1-----------1---1----------------------|
E|-----------1---------------------------------------------------------------|
  I feel so down and I'm waiting for you, I am So Tired (2X)

Bridge to final: Dm / Bb