Misc. Unsigned Bands - The Autumn Light - Interlude Part 1 Text Guitar Tab

Learn the song with the online tablature player
eb|------6----------------------------------------------------------------|
Bb|---10---10-8-6-/5-/6-/10-8-6---6--6--5--5--6--6--5--5--6-6---6-6---5---|
Gb|--7--7-7--7-7-7--7--7---7-7-7-7--7--7--7--7--7--7--7--7-7-7-7-7-7-7----|
Db|-0---------------------------8--8--7--7--8--8--7--7--8-----8-----7-----|
Ab|-----------------------------------------------------------------------|
Eb|-----------------------------------------------------------------------|

eb|------------------------------------0~---|
Bb|--5---5-5---6-6---6-6---5-5---5-5---5~---|
Gb|-7-7-7-7-7-7-7-7-7-7-7-7-7-7-7-7-7--5~---|
Db|----7-----8-----8-----7-----7-------7~---|
Ab|------------------------------------0~---|
Eb|------------------------------------0~---|