Misc. Unsigned Bands - The Best Is Over - Sayvinyl Text Guitar Tab

Learn the song with the online tablature player
                             The Best Is Over - Sayvinyl

Intro
e|---------------------------------------------------------------------------|
B|---------------------------------------------------------------------------|
G|---------------------------------------------------------------------------|
D|---------------4-------------------------4---------------------------------|
A|--5-7-5-3~-4-6---6-4-4-6----5-7-5-3~-4-6---6-3-4-4-------------------------|
E|---------------------------------------------------------------------------|

e|---------------------------------------------------------------------------|
B|---------------------------------------------------------------------------|
G|---------------------------------------------------------------------------|
D|---------------4-----------------------------------------------------------|
A|--5-7-5-3~-4-6---6-4-4-6---5-7-5-4-4-0~------------------------------------|
E|---------------------------------------------------------------------------|

| /   slide up
| \   slide down
| h   hammer-on
| p   pull-off
| ~   vibrato
| +   harmonic
| x   Mute note
| b   Bend
| pb  Pre-bend
| br  Bend release
| pbr Pre-bend release
| brb Bend release bend