Misc. Unsigned Bands - The Businessmen - Georgia Mountain Lullaby Text Guitar Tab

Learn song with the online tabulature player
This is an instrumental acoustic song that was on the Fade Into Dreams album.  It is 
bluegrass, which is strange for a very hardcore-like group.  They usually sound like Van 
grage band style, so this is very different for them.

The whole song is slow

intro

E------------------------------------------------------------------|
A------------------------------------------------------------------|
D------------------------------------------------------------------|  (repeat
G-----------------------------------------2------------------------|  twice)
B-0-2------------2---0-2-0-2------2-0-2-0--0-2----------------2-0--|
E-----0-2-2-5-2-0-0----------0-2-0------------0-2-2-2-2-0-2-0------|

transition 1

E-------------|
A-------------|
D---------0-2-|
G--------2----|
B-----2-0-----|
E--2-0--------|

main song

E------------------------------------------------|
A--------------------------------------------3---|
D-0-2-------2-0-2--------0-2-----------2-2-0-----|  (repeat three X)
G-----0-2-0-------0-2--------0-2---2-0-----------|
B--------------------------------1---------------|
E------------------------------------------------|
                                                 transition 2
E-----------------------------------------       ----------3------|
A-----------------------------------3-3---       -------2-0-------|
D-0-2-0-2---------0-2-----------2-0------*(twice)----2-0----------|
G---------0-2-0-2-----0-2---2-0----------*       2-0--------------|
B-------------------------1---------------       -----------------|
E-----------------------------------------       -----------------|

Bridge

E---------------------------------------------------------|
A---------------------------------------------------------|
D---------------------------------------------------------|
G---------------12--12-------------------------12----12---|
B---------12-10--------10-12-12----------12-10----10------|
E-12--10-------------------------12--10-------------------|

Main Song Part 2

E------------------------------------------------------------------------|
A---------------------3-3-------------------------------2----------------|
D-0-2-------------2-0-----0-2-------2-----0-2-------2-0---0-0-2-0-----2--| (2X)
G-----0-2-2-2-2-0-------------0-2-0--0--------0-2-0---------------2-0----|
B------------------------------------------------------------------------|
E------------------------------------------------------------------------|

transition 3

E-0-2---------------|
A----0-2------------|
D--------0-2--------|
G------------2-0----|
B-------------------|
E----------------0--|

Outro
get slower
E---------------------|
A---------------------|
D---------------------|
G-------------------2-|
B-0-2-----------2-0---|
E-----0-2-5-2-0-------|