Misc. Unsigned Bands - The City Never Sleeps - Hello Vice Text Guitar Tab

Learn the song with the online tablature player
[Intro/Verse] Let's get ripped, let's take bottles down the hatch...
E-------------------|
B------5---7---8----|
G--4---4---6---6----|
D--4---x---x---x----|
A--x---4---6---6----|
E--4----------------|

Chorus
Don't be sad, use your words like a big boy...
E---------------------|
B--5---4--------4-----|
G--6---x----4---x-----|
D--6---4----x---4-----|
A--4---2----6---2-----|
E--x--------4---------|

[Repeat Verse & Chorus]

Breakdown
All you need to know is I got this right hook...
E--------------------|
B--5-------7---------|
G--4---4---6---4-----|
D--x---4---x---4-----|
A--4---x---6---x-----|
E------4-------4-----|

[Chorus/Outro]