Misc. Unsigned Bands - The Confessions - Its Killing Me Text Guitar Tab

Learn the song with the online tablature player
Intro

E|----------|-----------|-----------|-------------|
B|--8-------|-----------|--9--------|--12--10--10-|
G|-------9--|--9----8---|-------9---|--12--9---8--|
D|--9-------|-----------|--9--------|-------------|   x2
A|--7----10-|--10---9---|--7----10--|--10--9---2--|
E|-------8--|--8----7---|-------8---|-------------|

Verse

E|----------|-----------|----------|-----------|
B|--8-------|-----------|--8-------|-----------|
G|-------9--|--9----8---|-------9--|--9----8---|
D|--9-------|-----------|--9-------|-----------|
A|--7----10-|--10---9---|--7----10-|--10---9---|
E|-------8--|--8----7---|-------8--|--8----7---|

----------|-------------|----------|-----------|
-------8--|-------------|-------8--|--8----7---|
-------9--|--12--9---8--|-------9--|--9----8---|
--9-------|-------------|--9-------|-----------|
--7----10-|--10--9---2--|--7----10-|--10---9---|
--8-------|--12--10--10-|--8-------|-----------|

Chorus

E|----------|----------|
B|--8-------|----------|
G|-------8--|--9----8--|
D|--9-------|----------|   x4
A|--7----9--|--10---9--|
E|-------7--|--8----7--|

Bridge
E|----------|----------|
B|--8-------|----------|
G|-------8--|--6----8--|
D|--9-------|----------|   x4
A|--7----9--|--7----9--|
E|-------7--|--5----7--|

Song Structure:
Intro
Verse x2
Chorus
Verse x2
Chorus
Bridge
Verse