Misc. Unsigned Bands - The County Line Project - Wasted Days Text Guitar Tab

Learn the song with the online tablature player
Song: Wasted Days

((PLEASE!!! Go easy on me!!! I've never done Tabs before! So come on and tell me what I
wrong, tell me if you like the tab, and so on.))

(Intro, pretty fast.)
x3
e|-0-7-8-0-7-8-10-8-7--------------------------------------------------------|
B|---------------------------------------------------------------------------|
G|---------------------------------------------------------------------------|
D|---------------------------------------------------------------------------|
A|---------------------------------------------------------------------------|
E|---------------------------------------------------------------------------|

_____________________________________________________________________________
e|-0-7-8-0-7-8-10-8-7-5-3-5-7-----0-7-8-0-7-8-10-8-7-5-3-5-7-----------------|
B|----------------------------7-5~----------------------------7-5~~~~--------|
G|---------------------------------------------------------------------------|
D|---------------------------------------------------------------------------|
A|---------------------------------------------------------------------------|
E|---------------------------------------------------------------------------|

_____________________________________________________________________________
(play this 4 times, strummed fast)
e|---------------------------------------------------------------------------|
B|---------------------------------------------------------------------------|
G|---------------------------------------------------------------------------|
D|---------------------------11(x8)----9(x4)---------------------------------|
A|-13(x8)-----11(x8)---------9---------7-------9(x4)-------------------------|
E|-11---------9--------------------------------7-----------------------------|

_____________________________________________________________________________
(play this x4, strum averagely)
e|---------------------------------------------------------------------------|
B|---------------------------------------------------------------------------|
G|---------------------------------------------------------------------------|
D|---------------------------------------------------------------------------|
A|-0--------7-7-7-7-7-7-7-7---8-8-8-8-8-8-8-8-0------------------------------|
E|-0--------9-9-9-9-9-9-9-9--10-10-10-10-10-10-10-10-0-----------------------|

e|---------------------------------------------------------------------------|
B|---------------------------------------------------------------------------|
G|---------------------------------------------------------------------------|
D|---------------------------------------------------------------------------|
A|-7-7-7-7-7-7-7-7------8-8-8-8---------12-12------8-8-----------------------|
E|-9-9-9-9-9-9-9-9------10-10-10-10-----10-10------10-10---------------------|

e|---------------------------------------------------------------------------|
B|---------------------------------------------------------------------------|
G|---------------------------------------------------------------------------|
D|---------------------------------------------------------------------------|
A|-7-7-7-7-7-7-7-7-----------------------------------------------------------|
E|-9-9-9-9-9-9-9-9-----------------------------------------------------------|

_____________________________________________________________________________
(play this 4 times, strummed fast)
e|---------------------------------------------------------------------------|
B|---------------------------------------------------------------------------|
G|---------------------------------------------------------------------------|
D|---------------------------11(x8)----9(x4)---------------------------------|
A|-13(x8)-----11(x8)---------9---------7-------9(x4)-------------------------|
E|-11---------9--------------------------------7-----------------------------|

_____________________________________________________________________________
(play this x4, strum averagely)
e|---------------------------------------------------------------------------|
B|---------------------------------------------------------------------------|
G|---------------------------------------------------------------------------|
D|---------------------------------------------------------------------------|
A|-0--------7-7-7-7-7-7-7-7---8-8-8-8-8-8-8-8-0------------------------------|
E|-0--------9-9-9-9-9-9-9-9--10-10-10-10-10-10-10-10-0-----------------------|

e|---------------------------------------------------------------------------|
B|---------------------------------------------------------------------------|
G|---------------------------------------------------------------------------|
D|---------------------------------------------------------------------------|
A|-7-7-7-7-7-7-7-7------8-8-8-8---------12-12------8-8-----------------------|
E|-9-9-9-9-9-9-9-9------10-10-10-10-----10-10------10-10---------------------|

e|---------------------------------------------------------------------------|
B|---------------------------------------------------------------------------|
G|---------------------------------------------------------------------------|
D|---------------------------------------------------------------------------|
A|-7-7-7-7-7-7-7-7-----------------------------------------------------------|
E|-9-9-9-9-9-9-9-9-----------------------------------------------------------|

____________________________________________________________________________

e|---------------------------------------------------------------------------|
B|---------------------------------------------------------------------------|
G|---------------------------------------------------------------------------|
D|---------------------------------------------------------------------------|
A|---------------------------------------------------------------------------|
E|-0-7-8-0-7-8-10-8-7-5-3-2-0------------------------------------------------|

____________________________________________________________________________

| /  slide up
| \  slide down
| h  hammer-on
| p  pull-off
| ~  vibrato
| +  harmonic
| x  Mute note