Misc. Unsigned Bands - The Death Kiss - Renaissance Philosophy Text Guitar Tab

Learn the song with the online tablature player
INTRO

Guitar 1

|---------------------------------------------6-4-5-6-4-5-7-4-7-7-5-6-7|
|-----------------------------3-5-6-8-5-8-8-8--------------------------|
|-------------------5-6-7-5-9------------------------------------------|
|---11h12---12h11------------------------------------------------------|
|----------------------------------------------------------------------|
|000-----000-----000---------------------------------------------------|
 ...     ...     ...

|----------------------------------------------------------------------|
|----------------------------------------------------------------------|
|----------------------------------------------------------------------|
|----------------------------------------------------------------------|
|---5h7---7p5-------0h5h8-0h5h8-0h5h8-0h5h8-0h4h7-0h4h7-0h4h7-0h4h7-0h4|
|000---000---000-000---------------------------------------------------|
 ...   ...   ... ...