Misc. Unsigned Bands - The Faith - Its Time Text Guitar Tab

Learn song with the online tabulature player
Riff 1 (Intro/Verse)
E--------------------------------|
B--------------------------------|
G--------------------------------|
D--4--6--4--6-7--7-7-7-7-7-6-6---|
A--4--6--4--6-7--7-7-7-7-7-6-6---|
E--2--4--2--4-5--5-5-5-5-5-4-4---|
               PM----------------|
Riff 2 (Chorus)
E--------------------------------|
B--------------------------------|
G--6--6--6-6-6--4-2--2-2-2-9--9--|
D--6--6--6-6-6--4-2--2-2-2-9--9--|
A--4--4--4-4-4--2-0--0-0-0-7--7--|
E--------------------------------|

Riff 1 x6
Riff 2 x4
Riff 1 x6
Riff 2 x4

Start and End with
D--4--
A--4--
E--2--