Misc. Unsigned Bands - The Force Mds - Tender Love Text Guitar Tab

Learn the song with the online tablature player
This song is not 100% correct but a good cover.
You can use the 1st verse to play the 2nd verse.
I'm not positive about the chorus but it sounds good.
[LYRICS ARE ON BOTTOM]

PLEASE RATE
COMMENT IF YOU HAVE ANY QUESTIONS

    [~]Let Ring
    [x]Slap

INTRO
E|----------------------------0---------|
B|--3----3---0---3-0-------3---3~-0~----|
G|--0--0--0----2----------2-0~----------|
D|--2---2--2-------------0--------------|
A|--3-------------------0---------------|
E|--------------------------------------|

E|------------------------------------------------|
B|--3----3---0--3-0--------0-1-0-1-0-3-1-0--------|
G|--0--0--0---2-----------2----------------0~-----|
D|--2---2--2--------------------------------------|
A|--3---------------------0-----------------------|
E|-----------------------------------------3------|

Verse 1
    Here I lay all alone...   Tossin Turnin'
E|-------------------------0------------|
B|--3----3--0--3-0-------3--3-----0-----|
G|--0--0--0--2----------2-0----2-0-0----|
D|--2---2--2-----------0----------------|
A|--3-----------------0-----------------|
E|--------------------------------------|

    Longin for some of your... Tender Love
E|-------------------------------0--------------|
B|--3----3---0--3-0------------3--3-------------|
G|--0--0--0---2---------------2-0----2-0-0~-----|
D|--2---2--2-----------------0------------------|
A|--3-----------------------0-------------------|
E|----------------------------------------------|

    I'm waitin for the right...  Moment to come
E|-------------------------0----------------|
B|--3----3---0--3-0------3--3---------0-----|
G|--0--0--0---2---------2-0--------2-0-0----|
D|--2---2--2-----------0--------------------|
A|--3-----------------0---------------------|
E|------------------------------------------|

    So I can thank you for...All the tender love you've given to me
E|------------------------------------------------------|
B|--3----3---0--3-0-------------0-1-0-1-0-3-1-0---------|
G|--0--0--0---2----------------2----------------0~------|
D|--2---2--2--------------------------------------------|
A|--3---------------------------------------------------|
E|------------------------------------------------------|

Chorus
    Tender love... Love so tender
E|-----x-----x--------------x------------|
B|--3--x--3--x----------3---x---3--------|
G|--0--x--0--x----------0---x---0--------|
D|--2--x--2--x----------2---x---2--------|
A|--3--x--3--x----------2---x---2--------|
E|-----x-----x--------------x------------|

    Holdin' me close to you
E|-------x--------3---x---3---x----------|
B|-------x--------3---x---3---x----------|
G|-------x--------2---x---0---x----------|
D|-------x--------0---x---2---x----------|
A|-------x--------0---x---2---x----------|
E|-------x--------2---x-------x----------|

    Baby I surrender
E|-------3--x---3--------------------|
B|-------3--x---3--------------------|
G|-------2--x---0--------------------|
D|-------0--x---2--------------------|
A|-------0--x---3--------------------|
E|-------2--x------------------------|

VERSE 2
  Candles they light the dark,
  Now I see how
  lovely these feelings are

  All the tender love you've given to me
E|-----------------------------|
B|------0-1-0-1-0-3-1-0--------|
G|-----2----------------0~-----|
D|-----------------------------|
A|-----0-----------------------|
E|----------------------3~-----|

  And I want you more and more
  (can't resist you)
  oh and I feel your touch
  Tender love
  loving me straight from the heart
  (hold me nearer)
  reasons beyond our love
  All the tender love you've given to me

  (INSTRUMENTAL)
  [Play verse for instrumentals]

  Tender love (tender love)
  Love so tender
  Holdin me close
  Baby I surrender (baby I surrender)

  (Instrumental)

Outro
  Tender love (tender love)
  Love so tender
  Hold me close to you
  Baby I surrender
  Tender love (tender love)
  Love so tender, baby
  Hold me close
  Hold me close
  Hold me close to you,
  I surrender
  Tender love
  (tender love)
  Tender love
  Tender love, give me some of that tender love
  Tender love