Misc. Unsigned Bands - The Growlers - Tijuana Text Guitar Tab

Learn song with the online tabulature player
"Tijuana"
                                    by
                               The Growlers


NOTE: Theres not much to the song. Just play the intro chords,
and then decide when you want to play the main riff at the lower
or higher octave. And thats the whole song.


e|--------3-4-5------------3-4-5--------|
B|--5-----3-4-5------5-----3-4-5--------|
G|--6-----4-5-6------6-----4-5-6--------| (You can add a little bend to
D|--7----------------7------------------|  the first chord if you'd like.)
A|--------------------------------------|
E|--------------------------------------|


e|----------------------------------------------------------|
B|----------------------------------------------------------|
G|--2--0-2-0--------------0------2--2-0-2-0-----2-0---0-----|
D|-----------2----------2---2---------------2-------2-------|
A|-------------3-0--0-3-----------------------3-------------|
E|----------------------------------------------------------|


e|---------------------------------------|
B|--10--8-10-8-------------------8-------|
G|-------------9---------------9---9-----|
D|---------------10-7---7--10------------|
A|---------------------------------------|
E|---------------------------------------|


e|---------------------------------------|
B|---10--10--8-10-8---------10-8---8-----|
G|------------------9------------9-------|
D|---------------------10----------------|
A|---------------------------------------|
E|---------------------------------------|