Misc. Unsigned Bands - The Hermerphys - A Tribute To Patrick Parrish Text Guitar Tab

Learn the song with the online tablature player
here's link to listen to song

at the beginning there are 4 scratches and then this

e|-------------------------------------------------------------------------|
B|-------------------------------------------------------------------------|
G|-------------------------------------------------------------------------|
D|---------0-------------0--(0)--------------------------------------------|
A|------0-----0-------0----------0-----------------------------------------|
E|---0-------------0-------------------------------------------------------|

one, two, three, four, one, two, three, four

Verses
all)

e|-------------------------------------------------------------------------|
B|-------------------------------------------------------------------------|
G|-------------------------------------------------------------------------|
D|-------------------------------------------------------------------------|
A|--5-5-5-5-5-5-5-5-2-2-2-2-2-2-2-2----------------------------------------|
E|--3-3-3-3-3-3-3-3-0-0-0-0-0-0-0-0----------------------------------------|
pm  ................................

Chorus
all) no words
e|-------------------------------------------------------------------------|
B|-------------------------------------------------------------------------|
G|-------------------------------------------------------------------------|
D|-5-5-5-5-5-2-2-2-2-2-5-5-5-5-5-7-7-7-7-7---------------------------------|
A|-3-3-3-3-3-0-0-0-0-0-3-3-3-3-3-5-5-5-5-5---------------------------------|
E|-3-3-3-3-3-0-0-0-0-0-3-3-3-3-3-5-5-5-5-5---------------------------------|

just repeat as needed and the outro is just a modified chorus.....it ain't that hard to figure out