Misc. Unsigned Bands - The Hollows - The Other Girl Text Guitar Tab

Learn the song with the online tablature player
                             SONG NAME - Band Name

this is a great song from a great band.  i cant wait for the new album its gonna
be great.  im pretty sure this is a 100% correct.

the drums play on their own for the first part, then the guitar comes in with this.
verse
e|--------------------------------------------------------------------------|
B|--------------------------------------------------------------------------|
G|--------------------------------------------------------------------------|
D|---7--7---7-7-7-----9--9---9-9-9------5--5---5-5-5------12-12---12-12-12--|
A|---7--7---7-7-7-----9--9---9-9-9------5--5---5-5-5------12-12---12-12-12--|
E|---5--5---5-5-5-----7--7---7-7-7------3--3---3-3-5------10-10---10-10-10--|

this is played eight times before changing to this.....
chorus
e|--------------------------------------------------------------------------|
B|--------------------------------------------------------------------------|
G|--------------------------------------------------------------------------|
D|-------9--9--9--9----12--12--12--12----14--14--14--14----7--7--7--7-------|
A|-------7--7--7--7----10--10--10--10----12--12--12--12----5--5--5--5-------|
E|--------------------------------------------------------------------------|

you play this twice before you play the verse eight times again.
after you play that play the chorus four times.  the verse is then played again
four times before the solo.
solo
e|--------------------------------------------------------------------------|
B|-----------------------------------------------------12br-----------------|
G|--14br-12-11--------14br-12-11-------14br-12-11-----------12-11-----------|
D|-------------12----------------12---------------12--------------12--------|
A|----------------14----------------14--------------14--------------14------|
E|--------------------------------------------------------------------------|

e|--------------------------------------------------------------------------|
B|-------------------------------------12br---------------------------------|
G|--14br-12-11--------14br-12-11-----------12-11----------14br-12-11--------|
D|-------------12----------------12---------------12----------------12------|
A|----------------14----------------14--------------14----------------14----|
E|--------------------------------------------------------------------------|

e|--------------------------------------------------------------------------|
B|-----------------------12-------------------------------------------------|
G|--14-12-11----11-12-14----14-12-11-9--------------------------------------|
D|-----------12------------------------12~----------------------------------|
A|--------------------------------------------------------------------------|
E|--------------------------------------------------------------------------|

| /  slide up
| \  slide down
| h  hammer-on
| p  pull-off
| ~  vibrato
| +  harmonic
| x  Mute note