Misc. Unsigned Bands - The Hours - Ali In The Jungle Text Guitar Tab

Learn song with the online tabulature player
e|---------------------------------------------------------------------------|
B|---------------------------------------------------------------------------|
G|---------------------------------------------------------------------------|
D|--9-----9-----9-----9-----9-9------9-----9-----9-----9-----11-11-----------|
A|7---7-7---7-7---7-7---7-7--------7---7-7---7-7---7-7---7-7-----------------|
E|---------------------------------------------------------------------------|

e|---------------------------------------------------------------------------|
B|---------------------------------------------------------------------------|
G|---------------------------------------------------------------------------|
D|--6-----6-----6-----6-----6-6------6-----6-----6-----6-----4-4-------------|
A|6---6-6---6-6---6-6---6-6--------6---6-6---6-6---6-6---6-6-4-4-------------|
E|---------------------------------------------------------------------------|