Misc Unsigned Bands - The Shower Scene - Notice Me Chords

 
No chord
    
Standard guitar tuning:
E
A
D
G
B
E
No capo
|--10-10-10-10-|
|--8--8--8--8--|
|--0--0--0--0--|
|--------0--0--|
|--10-9--------|
|--------8--8--|

Choruses

|--10-10-15----|
|--8--8--0--15-|
|--0--0--0--0--|
|-----0--0--0--|
|--7-----------|
|--0--8--15-14-|
Bridge & Outro:
|--10-10-10-10-|
|--8--8--8--8--|
|--0--0--0--0--|
|--0--0-----0--|
|--------7-----|
|--8--10-0--10-|

All Content on this page is the property of the copyright owner of the original composition.