Misc. Wwf - Batista Theme Text Guitar Tab

Learn song with the online tabulature player
All this is I walk alone by Saliva. I dint tab this .artistic did. So he takes credit 
this tab. I just want wrestling fans to know how to play it so I put it under this.

x = Deadnotes

I am pretty sure that this is about 100% correct.

INTRO
#####
Eb|--------------------------------------------------------------------------|
Bb|--------------------------------------------------------------------------|
Gb|--------------------------------------------------------------------------|
Db|--------------------------------------------------------------------------|
Ab|--3--0--3--0--3--0--3-5-3-5----3--0--3--0--3-6-3-5-3-5-3~-----------------|
Db|--3--0--3--0--3--0--3-5-3-5----3--0--3--0--3-6-3-5-3-5-3~-----------------|

    Yeah!
Eb|--------------------------------------------------------------------------|
Bb|--------------------------------------------------------------------------|
Gb|--------------------------------------------------------------------------|
Db|--3--0--3--0--3--0--3-5-3-5----3--0--3--0--3-6-5-5-3----------------------|
Ab|--3--0--3--0--3--0--3-5-3-5----3--0--3--0--3-6-5-5-3----------------------|
Db|--3--0--3--0--3--0--3-5-3-5----3--0--3--0--3-6-5-5-3----------------------|

Eb|--------------------------------------------------------------------------|
Bb|--------------------------------------------------------------------------|
Gb|--------------------------------------------------------------------------|
Db|--3--0--3--0--3--0--3-5-3-5----3--0--3--0--3-6-5-5-3----------------------|
Ab|--3--0--3--0--3--0--3-5-3-5----3--0--3--0--3-6-5-5-3----------------------|
Db|--3--0--3--0--3--0--3-5-3-5----3--0--3--0--3-6-5-5-3----------------------|


VERSE
#####
    This television has a poison on its breath.
Eb|--------------------------------------------------------------------------|
Bb|--------------------------------------------------------------------------|
Gb|--------------------------------------------------------------------------|
Db|--0~--3~--6~--5~----0~--3~--6~--5~----------------------------------------|
Ab|--0~--3~--6~--5~----0~--3~--6~--5~----------------------------------------|
Db|--0~--3~--6~--5~----0~--3~--6~--5~----------------------------------------|


PRE-CHORUS
##########
    I walk for miles inside this pit of danger.
Eb|--------------------------------------------------------------------------|
Bb|--------------------------------------------------------------------------|
Gb|--------------------------------------------------------------------------|
Db|--5-\-7-7-7-7--5----------------------------------------------------------|
Ab|--3-\-5-5-5-5--3--5-\-6-6-6-6-/-5--3-5-3----------------------------------|
Db|------------------5-\-6-6-6-6-/-5--3-5-3----------------------------------|


CHORUS
######
    I walk alone
Eb|--------------------------------------------------------------------------|
Bb|--------------------------------------------------------------------------|
Gb|--------------------------------------------------------------------------|
Db|--3--0--3--0--3--0--3-5-3-5----3--0--3--0--3-6-5-5-3----------------------|
Ab|--3--0--3--0--3--0--3-5-3-5----3--0--3--0--3-6-5-5-3----------------------|
Db|--3--0--3--0--3--0--3-5-3-5----3--0--3--0--3-6-5-5-3----------------------|


VERSE
#####
    I'm sick of all these people talkin' out their heads.
Eb|--------------------------------------------------------------------------|
Bb|--------------------------------------------------------------------------|
Gb|--------------------------------------------------------------------------|
Db|--0~--3~--6~--5~----0~--3~--6~--5~----------------------------------------|
Ab|--0~--3~--6~--5~----0~--3~--6~--5~----------------------------------------|
Db|--0~--3~--6~--5~----0~--3~--6~--5~----------------------------------------|


PRE-CHORUS
##########
    I walk for miles inside this pit of danger.
Eb|--------------------------------------------------------------------------|
Bb|--------------------------------------------------------------------------|
Gb|--------------------------------------------------------------------------|
Db|--5-\-7-7-7-7--5----------------------------------------------------------|
Ab|--3-\-5-5-5-5--3--5-\-6-6-6-6-/-5--3-5-3----------------------------------|
Db|------------------5-\-6-6-6-6-/-5--3-5-3----------------------------------|


CHORUS / SOLO-BACKGROUND-GUITAR
###############################
    I walk alone
Eb|--------------------------------------------------------------------------|
Bb|--------------------------------------------------------------------------|
Gb|--------------------------------------------------------------------------|
Db|--0-0-0--0-0-0--0-0-0-0--3-3-3--3-3-3--3-3-3-3----------------------------|
Ab|--0-0-0--0-0-0--0-0-0-0--3-3-3--3-3-3--3-3-3-3----------------------------|
Db|--0-0-0--0-0-0--0-0-0-0--3-3-3--3-3-3--3-3-3-3----------------------------|
pm   . . .  . . .  . . . .  . . .  . . .  . . . .

Eb|--------------------------------------------------------------------------|
Bb|--------------------------------------------------------------------------|
Gb|--------------------------------------------------------------------------|
Db|--6-6-6--6-6-6--6-6-6-6--5-5-5--5-5-5--5-5-5-5----------------------------|
Ab|--6-6-6--6-6-6--6-6-6-6--5-5-5--5-5-5--5-5-5-5----------------------------|
Db|--6-6-6--6-6-6--6-6-6-6--5-5-5--5-5-5--5-5-5-5----------------------------|
pm   . . .  . . .  . . . .  . . .  . . .  . . . .

Eb|--------------------------------------------------------------------------|
Bb|--------------------------------------------------------------------------|
Gb|--------------------------------------------------------------------------|
Db|--0-0-0--0-0-0--0-0-0-0--3-3-3--3-3-3--3-3-3-3----------------------------|
Ab|--0-0-0--0-0-0--0-0-0-0--3-3-3--3-3-3--3-3-3-3----------------------------|
Db|--0-0-0--0-0-0--0-0-0-0--3-3-3--3-3-3--3-3-3-3----------------------------|
pm   . . .  . . .  . . . .  . . .  . . .  . . . .

Eb|--------------------------------------------------------------------------|
Bb|--------------------------------------------------------------------------|
Gb|--------------------------------------------------------------------------|
Db|--6-6-6--6-6-6--6-6-6-6--5-5-5--5-5-5--5-5-5-5----------------------------|
Ab|--6-6-6--6-6-6--6-6-6-6--5-5-5--5-5-5--5-5-5-5----------------------------|
Db|--6-6-6--6-6-6--6-6-6-6--5-5-5--5-5-5--5-5-5-5----------------------------|
pm   . . .  . . .  . . . .  . . .  . . .  . . . .

Eb|--------------------------------------------------------------------------|
Bb|--------------------------------------------------------------------------|
Gb|--------------------------------------------------------------------------|
Db|--0~--3~--6~--5~----0~--3~--6~--5~----------------------------------------|
Ab|--0~--3~--6~--5~----0~--3~--6~--5~----------------------------------------|
Db|--0~--3~--6~--5~----0~--3~--6~--5~----------------------------------------|

Eb|--------------------------------------------------------------------------|
Bb|--------------------------------------------------------------------------|
Gb|--------------------------------------------------------------------------|
Db|--0~--3~--6~--5~----0~--3~--6~--5~----------------------------------------|
Ab|--0~--3~--6~--5~----0~--3~--6~--5~----------------------------------------|
Db|--0~--3~--6~--5~----0~--3~--6~--5~----------------------------------------|


OUTRO
#####
    I walk for miles inside this pit of danger.
Eb|--------------------------------------------------------------------------|
Bb|--------------------------------------------------------------------------|
Gb|--------------------------------------------------------------------------|
Db|--5-\-7-7-7-7--5----------------------------------------------------------|
Ab|--3-\-5-5-5-5--3--5-\-6-6-6-6-/-5--3-5-3----------------------------------|
Db|------------------5-\-6-6-6-6-/-5--3-5-3----------------------------------|

    I've swallowed down a thousand years of anger.
Eb|--------------------------------------------------------------------------|
Bb|--------------------------------------------------------------------------|
Gb|--------------------------------------------------------------------------|
Db|--5-\-7-7-7-7--5----------------------------------------------------------|
Ab|--3-\-5-5-5-5--3--5-\-6-6-6-6-/-5--3-5-3----------------------------------|
Db|------------------5-\-6-6-6-6-/-5--3-5-3----------------------------------|

    The weight of the world is falling on my shoulders.
Eb|--------------------------------------------------------------------------|
Bb|--------------------------------------------------------------------------|
Gb|--------------------------------------------------------------------------|
Db|--5-\-7-7-7-7--5----------------------------------------------------------|
Ab|--3-\-5-5-5-5--3--5-\-6-6-6-6-/-5--3-5-3----------------------------------|
Db|------------------5-\-6-6-6-6-/-5--3-5-3----------------------------------|

    A place where no one follows me
Eb|--------------------------------------------------------------------------|
Bb|--------------------------------------------------------------------------|
Gb|--------------------------------------------------------------------------|
Db|--5-\-7-7-7-7--5----------------------------------------------------------|
Ab|--3-\-5-5-5-5--3--5-\-6-6-6-6-/-5--3-5-3----------------------------------|
Db|------------------5-\-6-6-6-6-/-5--3-5-3----------------------------------|

    I walk alone
Eb|--------------------------------------------------------------------------|
Bb|--------------------------------------------------------------------------|
Gb|--------------------------------------------------------------------------|
Db|--3--0--3--0--3--0--3-5-3-5----3--0--3--0--3-6-5-5-3----------------------|
Ab|--3--0--3--0--3--0--3-5-3-5----3--0--3--0--3-6-5-5-3----------------------|
Db|--3--0--3--0--3--0--3-5-3-5----3--0--3--0--3-6-5-5-3----------------------|

                                          I walk alone
Eb|--------------------------------------------------------------------------|
Bb|--------------------------------------------------------------------------|
Gb|--------------------------------------------------------------------------|
Db|--3--0--3--0--3--0--3-5-3-5----3--0--3--0--3-6-5-5-3----------------------|
Ab|--3--0--3--0--3--0--3-5-3-5----3--0--3--0--3-6-5-5-3----------------------|
Db|--3--0--3--0--3--0--3-5-3-5----3--0--3--0--3-6-5-5-3----------------------|

Eb|--------------------------------------------------------------------------|
Bb|--------------------------------------------------------------------------|
Gb|--------------------------------------------------------------------------|
Db|--3--0--3--0--3--0--3-5-3-5----3--0--3--0--3-6-5-5-3----------------------|
Ab|--3--0--3--0--3--0--3-5-3-5----3--0--3--0--3-6-5-5-3----------------------|
Db|--3--0--3--0--3--0--3-5-3-5----3--0--3--0--3-6-5-5-3----------------------|

    Yeah
Eb|--------------------------------------------------------------------------|
Bb|--------------------------------------------------------------------------|
Gb|--------------------------------------------------------------------------|
Db|--3--0--3--0--3--0--3-5-3-5----3--0--3--0--3-6-5-5-3----------------------|
Ab|--3--0--3--0--3--0--3-5-3-5----3--0--3--0--3-6-5-5-3----------------------|
Db|--3--0--3--0--3--0--3-5-3-5----3--0--3--0--3-6-5-5-3----------------------|


Eb|--------------------------------------------------------------------------|
Bb|--------------------------------------------------------------------------|
Gb|--------------------------------------------------------------------------|
Db|--0~----------------------------------------------------------------------|
Ab|--0~----------------------------------------------------------------------|
Db|--0~----------------------------------------------------------------------|