Misc. Wwf - Booker T Theme Text Guitar Tab

Learn the song with the online tablature player
-Can you dig it sucka?-
|---------------8--7-----------------10--7-----------|
|-10p8-10p8-10---------10p8-10p8-10------------------|
|----------------------------------------------------|
|----------------------------------------------------|
|----------------------------------------------------|
|----------------------------------------------------|

|---------------8--7-----------------10--8--7--------|
|-10p8-10p8-10---------10p8-10p8-10------------------|
|----------------------------------------------------|
|----------------------------------------------------|
|----------------------------------------------------|
|----------------------------------------------------|

Power Chord Riff:
|-----------------------|
|-----------------------|
|----------------5------|
|-7-------5------5------|
|-7-------5------3------|
|-5-------3-------------|

Instrumental
Organ Part:
|----------------------------------------------------|
|----hold-note-----9--------7--6------4-\------------|
|----------------------------------------------------|
|----------------------------------------------------|
|----------------------------------------------------|

|----------------5--------5--------|
|-------------------5--8-----------|
|-6====----------------------------|
|---hold-note----------------------|
|----------------------------------|
|----------------------------------|