Misc. Wwf - Jeff Hardy Text Guitar Tab

Learn the song with the online tablature player
This theme is really easy and keeps going on forever. It's just composed of two riffs.
have to listen to the song and get the rhythm. There is a second guitar making these wah
I can't figure it out, but I think it's all on the 4th D string with a wah pedal.

Enjoy!

     A
E------------------------|
B------------------------|
G------------------------|
D-0-3-0-5-0-3------------|
A-0-3-0-5-0-3------------|
D-0-3-0-5-0-3------------|

     B
E------------------------|
B------------------------|
G------------------------|
D-0-0-0h3--0-0-7-6-5-----|
A-0-0-0h3--0-0-7-6-5-----|
D-0-0-0h3--0-0-7-6-5-----|