Misc. Wwf - Mick Foley Theme Text Guitar Tab

Learn song with the online tabulature player
-------------------------------------------------------------------------------
                             mick foley - misc wwf
-------------------------------------------------------------------------------
Tabbed by:devourke
Email:dunno

Tuning:eadgbe

e|---------------------------------------------------------------------------|
B|-------------------------------------8-------------------------------------|
G|-------------------------------------7-------------------------------------|
D|-x-7-7-4-4-4-2-2-2-x-7-7-4-4-4-2-2-2-6-------------------------------------|
A|-x-7-7-4-4-4-2-2-2-x-7-7-4-4-4-2-2-2-7-------------------------------------|
E|-x-5-5-2-2-2-0-0-0-x-5-5-2-2-2-0-0-0---------------------------------------|

| /  slide up
| \  slide down
| h  hammer-on
| p  pull-off
| ~  vibrato
| +  harmonic
| x  Mute note
===============================================================================