Misc. Wwf - Wwf Themes Part5 Text Guitar Tab

Learn the song with the online tablature player
The Rock
        A    B C  G
      E---------------------
      B---------------------
    . G---x----------------- .
Fig1. D-2-x--4-5------------ .
      A-0----2-3--5--4545-3-
      E-----------3---------

Stone Cold Steve Austin
        A     B   A        G           D          C
      E----------------   ------    -------    ------
      B----------------   ------    -------    ------
    . G-2-2---4---2----   -7~\\--    -------    ---5--
Fig1. D-2-2---4---2---- +1-5~\\--  +2---7~\\-  +3---5--
      A-0-0-0-2-0-0----   ------    -xx5~\\-    -0-3--
      E----------------   ------    -------    ------

          B C
      E-------
      A-------
      G---4-5-
   +4 D---4-5-
      A-0-2-3-
      E-------

        A     BbA           BbB C       BbC B
      E---------------   ---------   ---------
      B---------------   ---------   ---------
      G-2-2---3---2---   ---3-4-5-   ---3-5-4-
Fig2  D-2-2---3---2--- +1---3-4-5- +2---3-5-4-
      A-0-0-0-1-0-0---   -0-1-2-3-   -0-1-3-2-
      E---------------   ---------   ---------