Misc Your Songs - Andrew Rivett - The Acoustic Song Text Guitar Tab

Learn song with the online tabulature player
PLEASE REMOVE THIS FOR ME. IT IS AN EMBARASSMENT


Song: The Acoustic Song
Band: Andrew Rivett
Written By: Andrew Rivett
Tuning: Standard


This is a cool acoustic song I made up recently. It is kinda like Poprocks and Coke
by Green Day in some places. It has no lyrics, so if you like it, please PM me any
lyrics you make up for it. Or, just post them in the comments section. Yeah, that
would be easier.

Anyway, on with the show,

INTRO

e|-0-0-0-0-0-0-0-0--0-0-0-0-0-0-0-0--|
B|-2-2-2-2-2-2-2-2--2-2-2-2-2-2-2-2--|
G|-2-2-2-2-2-2-2-2--2-2-2-2-2-2-2-2--|
D|-2-2-2-2-2-2-2-2--2-2-2-2-2-2-2-2--|
A|-0-0-0-0-0-0-0-0--0-0-0-0-0-0-0-0--|
E|-----------------------------------|

VERSE

e|-0-0-0-0-0-0-0-0--2-2-2-2-2-2-2-2--0-0-0-0-0-0-0-0--0-0-0-0-0-0-0-0--|
B|-2-2-2-2-2-2-2-2--3-3-3-3-3-3-3-3--2-2-2-2-2-2-2-2--0-0-0-0-0-0-0-0--|
G|-2-2-2-2-2-2-2-2--2-2-2-2-2-2-2-2--2-2-2-2-2-2-2-2--1-1-1-1-1-1-1-1--|
D|-2-2-2-2-2-2-2-2--0-0-0-0-0-0-0-0--2-2-2-2-2-2-2-2--2-2-2-2-2-2-2-2--|
A|-0-0-0-0-0-0-0-0-------------------0-0-0-0-0-0-0-0--2-2-2-2-2-2-2-2--|
E|----------------------------------------------------0-0-0-0-0-0-0-0--|

e|-2-2-2-2-2-2-2-2--0-0-0-0-0-0-0-0--0-0-0-0-0-0-0-0--0-0-0-0-0-0-0-0--|
B|-3-3-3-3-3-3-3-3--2-2-2-2-2-2-2-2--0-0-0-0-0-0-0-0--0-0-0-0-0-0-0-0--|
G|-2-2-2-2-2-2-2-2--2-2-2-2-2-2-2-2--1-1-1-1-1-1-1-1--1-1-1-1-1-1-1-1--|
D|-0-0-0-0-0-0-0-0--2-2-2-2-2-2-2-2--2-2-2-2-2-2-2-2--2-2-2-2-2-2-2-2--|
A|------------------0-0-0-0-0-0-0-0--2-2-2-2-2-2-2-2--2-2-2-2-2-2-2-2--|
E|-----------------------------------0-0-0-0-0-0-0-0--0-0-0-0-0-0-0-0--|

e|-0-0-0-0-0-0-0-0--2-2-2-2-2-2-2-2--0-0-0-0-0-0-0-0--|
B|-2-2-2-2-2-2-2-2--3-3-3-3-3-3-3-3--2-2-2-2-2-2-2-2--|
G|-2-2-2-2-2-2-2-2--2-2-2-2-2-2-2-2--2-2-2-2-2-2-2-2--|
D|-2-2-2-2-2-2-2-2--0-0-0-0-0-0-0-0--2-2-2-2-2-2-2-2--|
A|-0-0-0-0-0-0-0-0-------------------0-0-0-0-0-0-0-0--|
E|----------------------------------------------------|

e|-0-0-0-0-0-0-0-0-0-0-0-0-0-0-0-0-0-0--|
B|-0-0-0-0-0-0-0-0-0-0-0-0-0-0-0-0-0-0--|
G|-1-1-1-1-1-1-1-1-1-1-1-1-1-1-1-1-1-1--|
D|-2-2-2-2-2-2-2-2-2-2-2-2-2-2-2-2-2-2--|
A|-2-2-2-2-2-2-2-2-2-2-2-2-2-2-2-2-2-2--|
E|-0-0-0-0-0-0-0-0-0-0-0-0-0-0-0-0-0-0--|

CHORUS

e|-3-3-3-3-3-3-3-3-3-3--0-0-0-0-0-0-0-0-0-0--|
B|-0-0-0-0-0-0-0-0-0-0--1-1-1-1-1-1-1-1-1-1--|
G|-0-0-0-0-0-0-0-0-0-0--0-0-0-0-0-0-0-0-0-0--|
D|-0-0-0-0-0-0-0-0-0-0--2-2-2-2-2-2-2-2-2-2--|
A|-2-2-2-2-2-2-2-2-2-2--3-3-3-3-3-3-3-3-3-3--|
E|-3-3-3-3-3-3-3-3-3-3-----------------------|

e|-3-3-3-3-3-3-3-3-3-3--0-0-0-0-0-0-0-0-0-0--|
B|-0-0-0-0-0-0-0-0-0-0--0-0-0-0-0-0-0-0-0-0--|
G|-0-0-0-0-0-0-0-0-0-0--1-1-1-1-1-1-1-1-1-1--|
D|-0-0-0-0-0-0-0-0-0-0--2-2-2-2-2-2-2-2-2-2--|
A|-2-2-2-2-2-2-2-2-2-2--2-2-2-2-2-2-2-2-2-2--|
E|-3-3-3-3-3-3-3-3-3-3--0-0-0-0-0-0-0-0-0-0--|

OUTRO

e|-2~-0~-0~-3~--2~-0~-0~-0~--|
B|-3~-2~-1~-0~--3~-2~-1~-0~--|
G|-2~-2~-0~-0~--2~-2~-0~-1~--|
D|-0~-2~-2~-0~--0~-2~-2~-2~--|
A|----0~-3~-2~-----0~-3~-2~--|
E|----------3~-----------0~--|


I really hope you like this. I wrote it on a clean electric but it would probably
sound better on an acoustic (not clasical, they suck). And please give me some
lyrics. If not lyrics, at least an idea for a theme.

Cheers!