Misc Your Songs - Annie G - Gallimaufry Text Guitar Tab

Learn the song with the online tablature player
GALLIMAUFRY

NOTE: Written as a composition project for Music Theory I
class.

     Classical section
     Q                 Q    E  E  E  E     Q    Q    E  E  Q
E||-------------------------------------|-------0---------------|
B||-------------------------------------|--0----L----4-----L----|
G||--------------------4----2--0-----0--|------------4--5--4----|
D||--2----------------------------4-----|--2----L---------------|
A||-------------------------------------|-----------------------|
E||-------------------------------------|-----------------------|

  Q    Q    E  E  E  E      E  E  E  E  H           E  E  E  E  H
-------7----5-----------|------------0-----------|--0--2--3--0-----------|
--5------------8--7--8--|--10--8--7--------------|--------------4--------|
------------------------|---------------8--------|--------------4--------|
--5----L----7--------L--|---9--------L-----------|--2--------L-----------|
------------------------|---------------9--------|--------------6--------|
------------------------|------------------------|-----------------------|

  E  E  E  E  B           E  E  E  E  E  E  E  E     B            E  E
--0--2--3--0-----------|--0--2--3--0--------------|---------------------|
--------------4--------|--------------------------|---------------------|
--------------4--------|--------0--L--4--2--5--3--|--4------------------|
--2--------L--4--------|--2--L--------4-----5-----|--4------------------|
-----------------------|--------------2-----3-----|--2------------2--4--|
-----------------------|--------------------------|---------------------|

  E  E  E  E  E  E  E  E     E  E  E  E  S S  S S Q
--------------------------|--7--6----------------------|
--------2--0--3--2--5--3--|--------8--5--7------L------|
--4--3--------------------|----------------------------|
--4--L--2--L--0--L--------|----------------------------|
--------------------4--L--|-----4--5--7--9-7------9----|
--------------------------|--7---------------10-9------|

  E  E  E  E  E  E  Q       E  E  E  E  Q     E  E     E  E  E  E  E  E  E  E
-----0-------------------|--------------------------|--------------------------|
--8-----7-----7----------|--------------------------|--------2--0--3--2--5--3--|
-----------7-----7--6----|--6-----7-----6-----------|--4--3--------------------|
--------0--L-------------|-----9-----9--------------|--4--L--2--L--0--L--------|
--7--L--------9--L--7----|--7--L--9--8--7S----2--4--|--------------------4--L--|
-------------------------|--------------------------|--------------------------|

                           Rock section
  E  E  E  E  Q.     E     Q            E  S E  E  S E  E
------------------------|----------------------------------|
--3--2--2--0------------|----------------------------------|
--------------3---------|----------------------------7--7--|
--0--L--2--L--4---------|--9------------9----9--9----7--7--|
---------------------2--|--9------------9----9--9----------|
------------------------|------------------7-------7-------|

  Q    E  S E  E  S S S E     E  E  E  S E  E  S E  E
---------------------------|---------------------------|
--------------------9---7--|---------------------7--7--|
--------------------9---7--|---------------------7--7--|
--9----9----9--9------9----|--9--9--9----9--9----------|
--9----9----9--9-----------|--9--9--9----9--9----------|
----------7-------7--------|-----------7-------7-------|

              |--3--|  |---3--|
  E  E  E  E  E  E  E  E  E   E     Q    E  S E  E  S E  E
---------------------------------|--------------------------|
--9-----7------------------------|--------------------8--8--|
--9-----7------------------------|--9----9----9--9----7--7--|
-----9-----7--9--7---------------|--9----9----9--9----------|
--------------------9--8--7------|----------7-------7-------|
-----------------------------10--|--------------------------|

  Q    E  S E  E  S  S S E     Q    E  S E  E  S E  E
----------------------------|--------------------------|
--------------------10---8--|--------------------------|
--9----9----9--9-------9-7--|--------------------7--7--|
--9----9----9--9------------|--9----9----9--9----7--7--|
----------7-------7---------|--9----9----9--9----------|
----------------------------|----------7-------7-------|

  E  E  E  S E  E  S E  E      Q     E  S  E   E  S  E   E
---------------------------|--------------------------------|
---------------------------|--------------------------------|
---------------------7--9--|--11----11----11--11----11--10--|
--9--9--9----9--9----7--9--|--11----11----11--11----11--10--|
--9--9--9----9--9----------|------------9---------9---------|
-----------7-------7-------|--------------------------------|

                                         |--3--|  |---3--|
  Q    E  S E  E  S E  E     E  E  E  E  E  E  E  E  E   E
--------------------------|---------------------------------|
--------------------------|---------------------------------|
--9----9----9--9----9--7--|---------------------------------|
--9----9----9--9----------|--9-----9-----9--7---------------|
----------7-------7-------|--9-----9-----------9--8--7------|
--------------------------|-----7-----7-----------------10--|

                                   Blues section
              |--3--|  |--3--|
  E  E  E  E  E  E  E  E  E  E     H             S S S S S S S S
--------------------------------|--7-----------------------------|
--------------------------------|--7-----------------------------|
--------------7--7--7--9--9--9--|--7-----------------7---9---7---|
--9--9--9-----7--7--7--9--9--9--|------------------9---9---9---9-|
--9--9--9-----------------------|--------------------------------|
-----------7--------------------|--------------------------------|

                                        |--3--|                  |--3--|
  H.           S  S S S    H.           E  E  E     H.           E  E  E
------------------------|------------------------|------------------------|
------------------------|--9---------------------|------------------------|
---------------9-11-9-7-|--9---------------------|------------------------|
--9---------------------|--9---------------7--9--|--9------------7--8--9--|
--9---------------------|---------------9--------|--9---------------------|
--7---------------------|------------------------|--7---------------------|

               |--3--|
  H.           E  E  E     H.           Q
------------------------|--7-----------------|
--9------------7--------|--7-----------------|
--9---------------9--7--|--7-----------------|
--9---------------------|---------------9----|
------------------------|---------------9----|
------------------------|---------------7----|

                                       Rock section
  |--3--|  |--3--|
  E  E  E  E  E  E  S S S S S S S S    E            Q    S E  E  S S S E
------------------------------------|-------------------------------------|
------------------------------------|-------------------------------------|
--9--7-----7------------------------|------------------------------7---7--|
--------9-----9--7--9-7-------------|--9------------9------9--9----7-9-7--|
------------------------9-7-9-8-7---|--9------------9------9--9-----------|
----------------------------------7-|--------------------7-------7--------|

  E  Q    S E  E  S S S E     E  E  E  S E  E  S E  E
---------------------------|---------------------------|
--------------------9---7--|---------------------------|
--------------------9---7--|---------------------7--7--|
--9--9------9--9------9----|--9--9--9----9--9----7--7--|
--9--9------9--9-----------|--9--9--9----9--9----------|
----------7-------7--------|-----------7-------7-------|

  E  E  E  S E  E  S E  E      Q     E  S  E   E  S  E   E
---------------------------|--------------------------------|
---------------------------|--------------------------------|
---------------------7--9--|--11----11----11--14----11--10--|
--9--9--9----9--9----7--9--|--11----11----11--14----11--10--|
--9--9--9----9--9----------|------------9---------9---------|
-----------7-------7-------|--------------------------------|

  Q    E  S E  E  S S S E     E  E  E  S E  E  S E  E
---------------------------|---------------------------|
--------------------9---7--|---------------------------|
--9----9----9--9----9---7--|---------------------7--7--|
--9----9----9--9------9----|--9--9--9----9--9----7--7--|
----------7-------7--------|--9--9--9----9--9----------|
---------------------------|-----------7-------7-------|

  Classical section
                                  |--3--|
  E                 E  E  E  Q    E  E  E     W
----------------------------------------2--|--2----------------||
--3-----------------2--2--0----------------|--4----------------||
-----------------------------3-------3-----|--4----------------||
--0-----------------L--2--L--4----4--------|-------------------||
-------------------------------------------|-------------------||
-------------------------------------------|-------------------||

Duration Legend

W - whole
H - half
Q - quarter
E - 8th
S - 16th
T - 32nd
X - 64th
. - note dotted
|-n-|  - n-tuplets

L - tied note
x - dead note
g - grace note
(n) - ghost note
> - accentuded note
NH - natural harmonic
AH - artificial harmonic
TH - tapped harmonic
SH - semi harmonic
PH - pitch harmonic
h - hammer on
p - pull off
b - bend
br - bendRelease
pb - preBend
pbr - preBendRelease
brb - bendReleaseBend
\n/ - tremolo bar dip
\n - tremolo bar dive
-/n - tremolo bar Release up
/n\ - tremolo bar inverted dip
/n - tremolo bar return
-\n - tremolo bar Release down
S - shift slide
s - legato slide
/ -  slide into from below or out of upwards
\ -  slide into from above or out of downwards
~ - vibrato
W - wide vibrato
tr - trill
TP - tremolo picking
T - tapping
S - slap
P - pop
< - fade in
^ - brush up
v - brush down