Misc Your Songs - Arsenault Ed - Mellow Morning Text Guitar Tab

Learn the song with the online tablature player
He-yea, homeade mellowness...you all probably dont know what it sounds like, but i
can assure you it sounds decent. One day ill get it recorded and if u want to hear,
u can email me. Anyways for a little description: The song is played slow, but not
very slow, the pace changes at the intrelude, it is pointed out, but it is not
rapidly changed anyways, this is one of my better mellow songs, so have fun trying
to get the sound.piece of advice...use acoustic or electric - classical sounds
iffy. On With The Tab.

                                                                   Ed

-|----------------------------------------------------------------------------
-|-------0-------0-------0-------0-------0-------0---0---0---0---0------------
-|-----0-------0-------0-------0-------0-------0-------0-------0--------------
-|---0-------0-------0-------0-------0-------0--------------------------------
-|-----------------3-------0-----------------------3-------0------------------
-|-3-------0-----------------------3-------0----------------------------------

Intro
Play Slowly

-|-0--------------------------------------------------------------------------
-|-------0--1--0---0---0--0---0---0--0---0---0--------------------------------
-|-----0---------0---0------0----------0--------------------------------------
-|---4--------------------------0----------2----------------------------------
-|-------------3---------------------3----------------------------------------
-|-0----------------------3---------------------------------------------------
                                (Play This X 2)

-|----------------------------------------------------------------------------
-|--------0---0---------------------------------------------------------------
-|-0----0---0---------------0-----------0------------0-----------0------------
-|----0-------------------0-----------0------------0-----------0--------------
-|-2---------------------------------------3-3-0-3-----3-3-0-3----------------
-|---------------3-3-0-3------3-3-0-3-----------------------------------------

-|----------------------------------------------------------------------------
-|--------------------------------------------------0---0---------------------
-|-----------0------------0-----------0---0-----------0-----------------------
-|---------0------------0---------------0-------------------------------------
-|--------------------------3-3-0-3---------3-3-0-3---------------------------
-|-3-3-0-3-----3-3-0-3--------------------------------------------------------

-|-0--------------------------------------------------------------------------
-|-------0--1--0---0---0--0---0---0--0---0---0--------------------------------
-|-----0---------0---0------0----------0--------------------------------------
-|---4--------------------------0----------2----------------------------------
-|-------------3---------------------3----------------------------------------
-|-0----------------------3---------------------------------------------------
                              (Play This X 2)

-|----------------------------------------------------------------------------
-|----------------------------------------------------------------------------
-|-0---0---0--0---0---0--0---0---0--0---0---0--0---0---0--0---0---0-----------
-|---0---0------2---2------0---0------2---2------0---0------2---2-------------
-|------------3---------------------3---------------------3-------------------
-|-3---------------------3---------------------3------------------------------

-|----------------------------------------------------------------------------
-|----------------------------------------------------------------------------
-|-0---0---0--0---0---0--------2-------2--------0-------0--------2-------2----
-|---0---0------2---2---2----4---4---4---4----2---2---2---2----4---4---4---4--
-|------------3------------5-------5--------3-------3--------5-------5--------
-|-3--------------------------------------------------------------------------
                             Intrelude Begins Here

-|----------------------------------------------------------------------------
-|---------------------------------------------------0-------0----------------
-|-----0-------0--------2-------2-------2-------2------2---2---2---2----------
-|---2---2---2---2----4---4---4---4---4---4---4---4------4-------4------------
-|-3-------3--------5-------5-------5-------5---------------------------------
-|----------------------------------------------------------------------------
                   ^ Right about here - on the 3rd string G start to make a "slap"
                                        noise by plucking harder.

-|-0--------------------------------------------------------------------------
-|-------0--1--0---0---0--0---0---0--0---0---0--------------------------------
-|-----0---------0---0------0----------0--------------------------------------
-|---4--------------------------0----------2----------------------------------
-|-------------3---------------------3----------------------------------------
-|-0----------------------3---------------------------------------------------

-|-0--------------------------------------------------------------------------
-|-------0--1--0---0---0--0---0---0--0---0---0--0---0---0--0---0---0----------
-|-----0---------0---0------0----------0----------0---0------0---0------------
-|---4--------------------------0----------2----------------------------------
-|-------------3---------------------3---------------------3------------------
-|-0----------------------3---------------------3-----------------------------

-|----------------------------x-----------------------------------------------
-|-0---0---0--0---0---0-------x-----------------------------------------------
-|---0---0------0---0---0-----0-----------------------------------------------
-|----------------------------0-----------------------------------------------
-|------------3---------------2-----------------------------------------------
-|-3--------------------------3-----------------------------------------------

Thats the end of the song - Mellow Morning, what a good feeling it is.