Misc Your Songs - Chickenfoot - Human Slaughterhouse Text Guitar Tab

Learn the song with the online tablature player
Intro                                                      4 times
e|-------------------------------------------------------------------|
B|-------------------------------------------------------------------|
G|-------------------------------------------------------------------|
D|-------------------------------------------------------------------|
A|-----------------------4\3------4\3------------------7--7--5-6-----|
E|--21\--76546543765464--2\1-0000-2\1--76546543765464--5--5--3-4-----|

  Riff 1                              3 times
e|--------------------------------------------||----|
B|--------------------------------------------||----|
G|--------------------------------------------||----|
D|--------------------------------------------||----|
A|--4\3------4\3------4\3-----33334444--------||----|
E|--2\1-0000-2\1-0000-2\1-0000----------------||----|

Riff 2                               4 times  | 1&3 end | | 2&3end |
e|-------------------------------------------|-----------|-----------|
B|-------------------------------------------|-----------|-----------|
G|-------------------------------------------|-----------|-----------|
D|-------------------------------------------|-----------|-33334444--|
A|--4\3------4\3-----------4\3------4\3------|-33334444--|-----------|
E|--2\1-0000-2\1-000000000-2\1-0000-2\1-0000-|-----------|-----------|

  Riff 3                     7 times  |1,3,5| |         2,6        |
e|-----------------------------------|------|--------------------------|
B|-----------------------------------|------|--------------------------|
G|-----------------------------------|------|--------------------------|
D|-----------------------------------|------|--------------------------|
A|--2-4-3-4-6-4-3-6-2-4-3-4-6-4-3-6--|------|--------------------------|
E|--0-2-1-2-4-2-1-4-0-2-1-2-4-2-1-4--|-1PH--|-11111112221115555444-----|

  |           4,7         |  Riff 4                   3 times
e|-------------------------|----------------------------------|
B|-------------------------|----------------------------------|
G|-------------------------|----------------------------------|
D|-------------------------|----------------------------------|
A|-------------------4444--|----------------------------------|
E|--11111112221115555------|-111111122211155555554444444------|

  Riff 4 continued
e|----------------------------------------------------|
B|----------------------------------------------------|
G|----------------------------------------------------|
D|----------------------------------------------------|
A|----------------------------------5555444433332222--|
E|--11111112221115555551111111222111------------------|

  Riff 5                         4 times  |    1,3 endings     |
e|---------------------------------------|-----------------------|
B|---------------------------------------|-----------------------|
G|---------------------------------------|--754------------------|
D|---------------------------------------|-----754---------------|
A|--5-----7-----2---3---5---2---5-----7--|--------763------------|
E|----0-0---0-0---0---0---0---0---0-0----|------------763--------|

                                          |2, 4 end|
e|---------------------------------------|-----------|
B|---------------------------------------|-----------|
G|---------------------------------------|-----------|
D|---------------------------------------|-----------|
A|--5-----7-----2---3---5---2---5-----7--|--5--5-----|
E|----0-0---0-0---0---0---0---0---0-0----|--3--3-----|

  Riff 6 4 times
e|------------------------------------------|
B|------------------------------------------|
G|-----------------------------------------|
D|-----------------------------33334444----|
A|-----------33334444----------------------|
E|--765465432---------765465432------------|

  Riff 7            3 times |1,3 end| | 2 end|
e|-------------------------|--------|---------|
B|-------------------------|--------|---------|
G|-------------------------|--------|---------|
D|--7/8\7/8\7/8\7/8\7/8\7--|--------|---------|
A|--5/6\5/6\5/6\5/6\5/6\5--|--------|-2--4--3-|
E|-------------------------|7654321-|-0--2--1-|

  Riff 8
e|-------------------------|
B|-------------------------|
G|-------------------------|
D|-------------------------|
A|--222-444-333-444-555----|
E|--000-222-111-222-333----|

  Riff 9
e|------------------------------|
B|------------------------------|
G|------------------------------|
D|--7/8\7/8\7/8\7/8\7/8\7/8\7---|
A|--5/6\5/6\5/6\5/6\5/6\5/6\5---|
E|------------------------------|

  Riff 10           2 times
e|-------------------------|
B|-------------------------|
G|-------------------------|
D|-------------------------|
A|--222-444-333-444-555----|
E|--000-222-111-222-333----|

  Riff 11  3                      times        | 1, 3                  |
e|-----------------------------------------------------------------------|
B|----------------------------------------------3ph\/\/\/\/\/\/\/\/\/\---|
G|--------------------------------------------------------------------\--|
D|--------------5--------------------------5-----------------------------|
A|--2--4--------3-4-------------2--4-------3-4---------------------------|
E|--0--2--000-----2-4h7p4h7p4h7-0--2-000-----2---------------------------|

  Riff 11 continued
e|-------------------------------------------------
B|-------------------------------------------------
G|-------------------------------------------------
D|--------------5--------------------------5-------
A|--2--4--------3-4-------------2--4-------3-4-----
E|--0--2--000-----2-4h7p4h7p4h7-0--2-000-----2-----

|           2 ending               |
-----------------10-h14-p10---------------|
-------------12----------------12---------|
---------11-------------------------------|
-----12-----------------------------------|
-14---------------------------------------|
------------------------------------------|

  Last part
|-----------------10-h14-p10---------------|
|-------------12----------------12---------|
|---------11-------------------------------|
|-----12-----------------------------------|
|-14---------------------------------------|
|------------------------------------------|

|------10-h14-t19-t22-p19-p14-p10-h14-t19-p14-p10-------------------|
|----12----------------------------------------------12-------------|
|-11----------------------------------------------------11----------|
|-----------------------------------------------------------12------|
|-------------------------------------------------------------------|
|-------------------------------------------------------------------|

|----------10-h14-t19-t22-p19-p14-p10-h14-t19-p14-p10---------------|
|--------12----------------------------------------------12---------|
|-----11------------------------------------------------------------|
|---12--------------------------------------------------------------|
|-14----------------------------------------------------------------|
|-------------------------------------------------------------------|

|------10-h14-t19-t22-p19-p14-p10-h14-t19-p14-p10---------------------------|
|----12----------------------------------------------12---------------------|
|-11----------------------------------------------------11------------------|
|-----------------------------------------------------------12--------------|
|---------------------------------------------------------------14-p9-------|
|---------------------------------------------------------------------10-p7-|

that's it please rate and comment