Misc Your Songs - Cobain Lane - Lane Berries Text Guitar Tab

Learn the song with the online tablature player
                             Lane Berries – Lane Cobain

  Part 1                          Repeat several times
e|---------------------------------------------------------------------------|
B|---------------------------------------------------------------------------|
G|----4-----4-----4----------------------------------------------------------|
D|-4--4--4--4--4--4---------------5--2--5--2--5--2---------------------------|
A|-4--2--4--2--4--2---5p3-------3-5--2--5--2--5--2-------3-5-3---------------|
E|-2-----2-----2----------5-3-5---3--0--3--0--3--0---3h5-------5-------------|

  Part 2
e|---------------------------------------------------------------------------|
B|---------------------------------------------------------------------------|
G|-----------5-5-------------------------------------------------------------|
D|---------5-----5-----------------------------------------------------------|
A|-----4-6---------6-4-------------------------------------------------------|
E|-4-6-----------------6-5----5-4----4-4b\1----------------------------------|

  Part 3  (start soft then get louder)     repeat several times
e|---------------------------------------------------------------------------|
B|---------------------------------------------------------------------------|
G|---------------------------------------------------------------------------|
D|---------------------------4--4--------------------------------------------|
A|---3---4-3-----3---4-3-----3--3--------------------------------------------|
E|-4-----------4-------------4--4--------------------------------------------|

Order

Part 1 several times
Part 2
Part 3 several times
Part 1 several times
Part 2

That's it all done easy as lane berry pie!

| /  slide up
| \  slide down
| h  hammer-on
| p  pull-off
| b  Bend