Misc Your Songs - Dunnington Andrew - Free Style Text Guitar Tab

Learn the song with the online tablature player
this song is so cool I made it up yesterday.

play realy fast, this is a ska song.

  1 + 2 + 3 + 4 +
e-x-5-x-5-x-5-x-5]
b-x-6-x-6-x-6-x-6]
g-x-5-x-5-x-5-x-5]
d----------------]
a----------------]
e----------------]

  1 + 2 + 3 + 4 +
e-x-8-x-8-x-6-x-6]
b-x-8-x-8-x-6-x-6]
g-x-9-x-9-x-7-x-7]
d----------------]
a----------------]
e----------------]