Misc Your Songs - Gmaster Mb - Gmaster Is Coming To Town Text Guitar Tab

Learn song with the online tabulature player
Artist: Gmaster MB
Album : first EP (self improvise - here i come!!)
Title: Gmaster is Coming To Town!!
Tabbed by: Gmaster MB
Tuning: standard

This is the most perfect song in my demo disc. The solo was improvised, that's the best 
in this song..
my EP is not available, so wait until the finishing recording of this EP..

guitar 1 (4 times)
---------------------------------------------------------------------|
---------------------------------------------------------------------|
---4-4-4-4-4-4-4-4---------------------------------------------------|
---4-4-4-4-4-4-4-4-2-2-2-2-2-2-2-2-6-6-6-6-6-6-6-6-4-4-4-4-4-4-4-4---|
---2-2-2-2-2-2-2-2-2-2-2-2-2-2-2-2-6-6-6-6-6-6-6-6-4-4-4-4-4-4-4-4---|
-------------------0-0-0-0-0-0-0-0-4-4-4-4-4-4-4-4-2-2-2-2-2-2-2-2---|
   x x x x x x x x x x x x x x x x x x x x x x x x x x x x x x x x

guitar2 (comes after on last 2 repeat of intro)
----------------------------------------------------------------------|
----------------------------------------------------------------------|
---8-8-8-8-8-8-8-8-9-9-9-9-9-9-9-9-8-8-8-8-8-8-8-8-11111111-9-9-9-9---|
---x-x-x-x-x-x-x-x-x-x-x-x-x-x-x-x-x-x-x-x-x-x-x-x--x-x-x-x-x-x-x-x---|
---6-6-6-6-6-6-6-6-7-7-7-7-7-7-7-7-6-6-6-6-6-6-6-6--9-9-9-9-7-7-7-7---|
----------------------------------------------------------------------|

verse (both guitar) x2
--------x2---------------x2---------------x2----------------x2---------|
-----------------------------------------------------------------------|
--4-4-4-4-4-4-4-4------------------------------------------------------|
--4-4-4-4-4-4-4-4--2-2-2-2-2-2-2-2--6-6-6-6-6-6-6-6--4-4-4-4-4-4-4-4---|
--2-2-2-2-2-2-2-2--2-2-2-2-2-2-2-2--6-6-6-6-6-6-6-6--4-4-4-4-4-4-4-4---|
-------------------0-0-0-0-0-0-0-0--4-4-4-4-4-4-4-4--2-2-2-2-2-2-2-2---|

prechorus x2
(guitar1)
--------------------------------------------------------------------|
--------------------------------------------------------------------|
----------------------------------8-8-8-8-8-8-8-8-------------------|
--2-2-2-2-2-2-2-2-4-4-4-4-4-4-4-4-8-8-8-8-8-8-8-8-6-6-6-6-6-6-6-6---|
--2-2-2-2-2-2-2-2-4-4-4-4-4-4-4-4-6-6-6-6-6-6-6-6-6-6-6-6-6-6-6-6---|
--0-0-0-0-0-0-0-0-2-2-2-2-2-2-2-2-----------------4-4-4-4-4-4-4-4---|

guitar2
--------------0---------------0---------------0---------------0----|
------------0---------------0---------------0---------------0------|
--------------------------------------------------1----------------|
--2---------------4---------------1--------------------------------|
-------------------------------------------------------------------|
-------------------------------------------------------------------|

chorus (both guitar
---------------------------------------------------------------------|
---------------------------------------------------------------------|
--4-4-4-4-4-4-4-4----------------------------------------------------|
--4-4-4-4-4-4-4-4-4-4-4-4-4-4-4-4-6-6-6-6-6-6-6-6-2-2-2-2-2-2-2-2----|
--2-2-2-2-2-2-2-2-4-4-4-4-4-4-4-4-6-6-6-6-6-6-6-6-2-2-2-2-2-2-2-2----|
------------------2-2-2-2-2-2-2-2-4-4-4-4-4-4-4-4-0-0-0-0-0-0-0-0----|

---------------------------------------------------------------------|
---------------------------------------------------------------------|
--4-4-4-4-4-4-4-4-----------------6-6-6-6-6-6-6-6--------------------|
--4-4-4-4-4-4-4-4-4-4-4-4-4-4-4-4-6-6-6-6-6-6-6-6-2-2-2-2-2-2-2-2----|
--2-2-2-2-2-2-2-2-4-4-4-4-4-4-4-4-4-4-4-4-4-4-4-4-2-2-2-2-2-2-2-2----|
------------------2-2-2-2-2-2-2-2-----------------0-0-0-0-0-0-0-0----|

guitar 1 use intro riff without palm muting
guitar 2 = coming soon (this solo part is temporarily improvised, any update will be sooner...)