Misc Your Songs - Hockey Night In Canada Text Guitar Tab

Learn the song with the online tablature player
e|---------------------------------------------------3-------------5-3-----|
B|-------------------------------------------------------------------------|
G|----------------------------------------------5-------------5------------|
D|----------------------------------------5-5-5---5-----5-5-5---5----------|
A|-----3-3--1--------3-3--1------3-3--1------------------------------------|
E|-3-3---------3-3-----------3-3-------------------------------------------|

e|-------------------------------------------------------------------------|
B|------------5----8-9-8-----6-7-6---------6-6-7-8-------------------------|
G|---------5-------------8---------6---777---------------------------------|
D|--5-5-5------------------------------------------------------------------|
A|-------------------------------------------------------------------------|
E|-------------------------------------------------------------------------|