Misc Your Songs - Imk - Sad Afternoon Text Guitar Tab

Learn the song with the online tablature player
iMK - sad afternoon

I wrote this song for my little sister.

   |-----0-------0---|-----0-------0---|-----0-------0---|-----0-------0---|
   |-1-------1-------|-3-------3-------|-1-------1-------|-3-------1-------|
   |---0---0---0---0-|---0---0---0---0-|---0---0---0---0-|---0---0---0---0-|
   |-----------------|-----------------|-----------------|-----------------|
   |-3-------3-------|-2-------2-------|-0-------0-------|-----------------|
   |-----------------|-----------------|-----------------|-3-------3-------|

   |-----0-------0---|-----0-------0---|-----0-------0---|-----0-------0-----||
   |-1-------1-------|-1-------1-------|-1-------3-------|-1-------3--------o||
   |---0---0---0---0-|---0---0---0---0-|---0---0---0---0-|---0---0---0---0---||
   |-----------------|-----------------|-----------------|-------------------||
   |-----------------|-----------------|-----------------|------------------o||
   |-1-------1-------|-0-------0-------|-1-------1-------|-3-------3---------||

||-------0-------0---|-----0-------0---|-----0-------0---|-----0-------0---|
||o--1-------1-------|-0-------0-------|-1-------1-------|-3-------3-------|
||-----0---0---0---0-|---0---0---0---0-|---0---0---0---0-|---0---0---0---0-|
||-------------------|-----------------|-----------------|-----------------|
||o--3-------3-------|-2-------2-------|-0---------------|---------2-------|
||-------------------|-----------------|---------3-------|-1---------------|

   |-----0-------0---|-----0-------0---|-----0-------0---|-----0-------0---|
   |-3-------3-------|-1-------3-------|-1-------3-------|-1-------1-------|
   |---0---0---0---0-|---0---0---0---0-|---0---0---0---0-|---0---0---0---0-|
   |-----------------|-----------------|-----------------|-----------------|
   |-----------------|-3-------2-------|-0---------------|-----------------|
   |-0-------3-------|-----------------|---------3-------|-1-------0-------|

   |-----0-------0---|-----0-------0---|-----0-------0---|-----0-------0-----||
   |-1-------3-------|-1-------3-------|-1-------1-------|-1-------3--------o||
   |---0---0---0---0-|---0---0---0---0-|---0---0---0---0-|---0---0---0---0---||
   |-----------------|-----------------|-----------------|-------------------||
   |-----------------|-3-------2-------|-0---------------|------------------o||
   |-1-------3-------|-----------------|---------3-------|-1-------3---------||

   |-----0-----------||
   |-1-------1-------||
   |---0---0---------||
   |-----------------||
   |-3---------------||
   |-----------------||