Misc Your Songs - Itchywoolundies - Never Let You Down Text Guitar Tab

Learn the song with the online tablature player
Intro
|-----------------------------------------------------|
|-----------------------------------------------------|
|-----------------------------------------------------|
|-----5-3-----5-3-----4-2~---3------------------------|
|-3-5-----3-5-----2-4------0---5-3-0------------------|
|-----------------------------------------------------|

|-----------------------------------------------------|
|-----------------------------------------------------|
|-----------------------------------------------------|
|-----5-3-----5-3-----4-2~---3-----2~-----------------|
|-3-5-----3-5-----2-4------0---5-3-0~-----------------|
|-----------------------------------------------------|

Verse
|-----------------------------------------------------|
|-----------------------------------------------------|
|-----------------------------------------------------|
|-2-2-2-2-4-4-4-4-6-6-6-6-4-4--4-4-4-4-6-6---x2-------|
|-2-2-2-2-4-4-4-4-6-6-6-6-4-4--4-4-4-4-6-6------------|
|-0-0-0-0-2-2-2-2-4-4-4-4-2-2--2-2-2-2-4-4------------|

Chorus
|-----------------------------------------------------|
|-----------------------------------------------------|
|-9-9-9-9-9-9-5-5-5-7-7-------------------------------|
|-9-9-9-9-9-9-5-5-5-7-7-------------------------------|x2
|-7-7-7-7-7-7-3-3-3-5-5-------------------------------|
|-----------------------------------------------------|

|-----------------------------------------------------|
|-----7-9-7-7-7---------------------------------------|
|-7-9-7-9-7-7-7-7-7-7-9-9~----------------------------|
|-7-9-5-7-5-5-5-7-7-7-9-9~----------------------------|
|-5-7-----------5-5-5-7-7~----------------------------|
|-----------------------------------------------------|

|-----------------------------------------------------|
|-----7-9-7-7-7------------------9--------------------|
|-7-9-7-9-7-7-7-7-7-7-9-9~-5-7-9-9-9-7----------------|
|-7-9-5-7-5-5-5-7-7-7-9-9~-5-7-9-7-9-7-7~-------------|
|-5-7-----------5-5-5-7-7~-3-5-7---7-5-7~-------------|
|--------------------------------------5~-------------|

Play Verse
Play Chorus

Solo
|-----------------------------------------------------|
|-----------------------------------------------------|
|-----------------------------------------9-----------|
|-----5/7-5~------------------7-9~-7-9-11---9~--------|
|-3-5--------3-5-7-7----3-5-7-------------------------|
|--------------------7~-------------------------------|

|------------------------------------------------------|
|------------------------------------------------------|
|-------9-11-9---11-9----------------------11----------|
|--9-11--------9------11-9-11-11---------9----9-7------|
|--------------------------------9~-9-11----------7-5~-|
|------------------------------------------------------|

Chorus

Ending
|-----------------------------------------------------|
|-------9---------------------------------------------|
|-5-7-9-9-9-7-----------------------------------------|
|-5-7-9-7-9-7-7~-----5-3-----5-3-----4-2~-------------|
|-3-5-7---7-5-7~-3-5-----3-5-----2-4------------------|
|-------------5~--------------------------------------|