Misc Your Songs - Jared Hinton - Cold And Dark Text Guitar Tab

Learn the song with the online tablature player
This is something i wrote the other day really really simple guitar part...

Acoustic Guitar
verse 1
e----------------------------------|
b----------------------------------|
g----------------------------------|
d----2---2---2---2---2---2---2---2-|
a--0---0---0---0---0---0---0---0---|
e----------------------------------|
  the cold and the dark surround

e-------------------------------------------|
b-------------------------------------------|
g----2---2---2---2---2---2---2---2---2---2--|
d-------------------------------------------|
a--0---0---0---0---0---0---0---0---0---0----|
e-------------------------------------------|
   i Breathe in deep the fog of my thoughts

e----------------------------------------------|
b----1---1---1---1---1---1---1---1---1---1---1-|
g----------------------------------------------|
d----------------------------------------------|
a--0---0---0---0---0---0---0---0---0---0---0---|
e----------------------------------------------|
   the air is tainted, a poison is spreading

Chorus
type-thing

Am
the fumes
C
destroy
G
my thoughts

Play the rest the same way:

Verse 2

the warmth of the cold is around
the light of the dark shines
I cannot see the poisoned air

chorus
thing 2:

the light
hurts
my eyes

Verse 3

the poison spreads to my heart
my heart slows its beating
the light comes to my side

Chorus 3

the light
warms
my soul

Verse 4
the beating of my heart slows to a stop
the light carries me off to a place far away
peace has come to my soul

chorus 4

my soul
now
is complete

there it is
comments, questions, ridicule, send to: