Misc Your Songs - John Orgler - The Divine Red Text Guitar Tab

Learn the song with the online tablature player
This is just the intro to my new song that I am writing
not a bad song but a slow goodie that turns into an electirc song

 on the D and A strings use an upstroke
D|--------0------------0------------0-------0------------------------------|
A|---------0------------0------------0-------0-----------------------------|
F|-----2------------0------------------------------------------------------|
C|---3--------3---2--------2-----2-------0---------------------------------|
G|-----------------------------3-------2--------2~~------------------------|
C|-------------------------------------------------------------------------|

D|--------0------------0------------0-------0------------------------------|
A|---------0------------0------------0-------0-----------------------------|
F|-----2------------0------------------------------------------------------|
C|---3--------3---2--------2-----2-------0---------------------------------|
G|-----------------------------3----------------0--------------------------|
C|-------------------------------------3-----------------------------------|

D|--------0------------0------------0-------0------------------------------|
A|---------0------------0------------0-------0-----------------------------|
F|-----2------------0------------------------------------------------------|
C|---3--------3---2--------2-----2-------0---------------------------------|
G|-----------------------------3-------2--------2~~------------------------|
C|-------------------------------------------------------------------------|

D|--------0------------0------------0--------------------------------------|
A|---------0------------0------------0-------------------------------------|
F|-----2------------0------------------------------------------------------|
C|---3--------3---2--------2-----2-----2/4-4-4-4-4-4-4p0-------------------|
G|-----------------------------3-------3/5-5-5-5-5-5-5p0-------------------|
C|-------------------------------------------------------------------------|

The rest of the song is still being written.  It will be here in due time
thanx for checking my song out