Misc Your Songs - Kunz Preston - Come Gabriel Text Guitar Tab

Learn the song with the online tablature player
Name: Come Gabriel
Author: Preston Kunz
Year: 2004

Hi! this is my personal invention! ahha... And I just hope you gusy like it...
its really easy.. and so is my other one posted.. but I like it alot.. it was my first ever

Intro
E-2----2----2----2----2----2----2*-----------
B---2----2----2----2----2----2---------------     -*- = Let ring
G--2----2----2----2----2----2----------------
D--------------------------------------------
A--------------------------------------------
E--------------------------------------------

E-2----2----2-------2-------2-------2-------2----2----2-----------
B--2----2----2---------2-------2-------2-----2----2----2----------
G---2----2----2---------2-------2-------2-----2----2----2---------
D-------------------0-------0-------0-----------------------------
A-----------------------------------------------------------------
E-----------------------------------------------------------------

E-2-------2-------2-------2----2----2----2------
B----2-------2-------2-----2----2----2----2-----
G-----2-------2-------2-----2----2----2----2----
D-----------------------------------------------
A-0-------0-------0-----------------------------
E-----------------------------------------------             X3

E--2-------2-------2-----------     E--2-------2-------2------2----
B-----2-------2-------2--------     B-----2-------2-------2----2---
G------2-------2-------2-------     G------2-------2-------2----2--
D--0-------0-------0-----------     D------------------------------
A------------------------------     A------------------------------
E------------------------------     E--0-------0-------0-----------

E--2-------2-------2-------2-------2-------2----2----2----
B-----2-------2-------2-------2-------2-----2----2----2---
G------2-------2-------2-------2-------2-----2----2----2--
D--0------------------------------------------------------
A----------0----------------------------------------------
E------------------0-------0-------0----------------------

E--2-------2-------2-------2-------2-------2----2----2----
B-----2-------2-------2-------2-------2-----2----2----2---
G------2-------2-------2-------2-------2-----2----2----2--
D------------------0-------0-------0----------------------
A----------0----------------------------------------------
E--0------------------------------------------------------

E--2-------2-------2-------2-------2-------2----2----2----
B-----2-------2-------2-------2-------2-----2----2----2---
G------2-------2-------2-------2-------2-----2----2----2--
D--0----------------------------------------------------
A------------------0-------0-------0----------------------
E----------0----------------------------------------------

E--2-------2-------2-------2-------2-------2----2----2----
B-----2-------2-------2-------2-------2-----2----2----2---
G------2-------2-------2-------2-------2-----2----2----2--
D----------0----------------------------------------------
A------------------0-------0-------0----------------------
E--0------------------------------------------------------

E--2-------2-------2-------2-------2-------2-------
B-----2-------2-------2-------2-------2-------2----
G------2-------2-------2-------2-------2-------2---
D----------0---------------------------------------
A--0-----------------------0-------0-------0-------
E------------------0-------------------------------