Misc Your Songs - Little Lemon - Why Me Text Guitar Tab

Learn the song with the online tablature player
SONG NAME - Band Name

e|0000000---3333333---5555555---7-5-3-0-3------------------------|
B|---------------------------------------------------------------|
G|---------------------------------------------------------------|
D|---------------------------------------------------------------|
A|---------------------------------------------------------------|
E|---------------------------------------------------------------|x2 2nd with distortion
    G     A
e|-33333----------33333----------33333---------------------------|
B|------------11-------------11----------------------------------|
G|--------22--22---------22--22----------------------------------|
D|--------22--22---------22--22----------------------------------|
A|-22222--22------22222--22------22222---------------------------|
E|-33333----------33333----------33333---------------------------|

thats it so far only took me 10 mins 2 come up with it so dont blame me if you think its bad.

| / slide up
| \ slide down
| h hammer-on
| p pull-off
| ~ vibrato
| + harmonic
| x Mute note