Misc Your Songs - Mark D - What Its Like Without You Text Guitar Tab

Learn the song with the online tablature player
WHAT IT'S LIKE WITHOUT YOU -Written Jan 7, 2007

Intro
Moderate pace, played cleanly
e]---------------|-----------------|-----------------|-----------------|
B]-------2-------|--------5--------|--------7--------|--------4--------|
G]---4-----4---4-|----6-----6----6-|----9------9---9-|----6------6---6-|
D]-----4-----4---|------6------6---|------9------9---|------6------6---|
A]-2-------------|-4---------------|-7---------------|-4---------------|
E]---------------|-----------------|-----------------|-----------------|
         2x      |        2x       |        2x       |        2x      |

e]---------------|-----------------|----------------|----|
B]-------5-------|--------5--------|--------5-------|-5--|
G]---4-----4---4-|----4------4---4-|----4------4--4-|-4--|
D]-----2-----2---|------2------2---|------2------2--|-2--| let ring
A]-0-------------|-2---------------|-4--------------|-0--|
E]---------------|-----------------|----------------|----|

Chorus
Cleanly, and softly
e]------|---|-----|-------|---------------|
B]------|---|-----|-------|---------------|
G]------|---|-----|-------|---------------|
D]-9-9--|-0-|-6-6-|-11-11-|-9-9-9-9-9-9-9-|
A]-7----|-0-|-6---|-11----|-9-9-9-9-9-9-9-|
E]-0----|-0-|-4---|--9----|-7-7-7-7-7-7-7-|
    4x  |   | 4x  |  4x   |               |

Verse
Pick up the speed a little, and with distortion.  Let the last
two notes of each section ring out a little.
e]---------------------|--------------------|--------------------|----|
B]---------------------|--------------------|--------------------|----|
G]---------------------|--------------------|--------------------|-2--|
D]-9-9-9-9-9-9-9-9--7--|-4-4-4-4-4-4-4-2--4-|-7-7-7-7-7-7-7-7--5-|-2--|
A]-7-7-7-7-7-7-7-------|-2-2-2-2-2-2-2------|-5-5-5-5-5-5-5------|-0--|
E]---------------------|--------------------|--------------------|----|
                                                                                     | 7x |

Lyrics:
Verse
        Like a storm with no rain
        Like church empty on Sunday
        Like a night without any stars

        Like a life full of pain
        Like a song with no music
        Like a child left in the rain
Chorus
        Every time that I think of you
        Is a time that I'll get through
        I think about you all of the time
Verse
        Like a ocean with no water
        Like a bad day with no end
        Like a sickness with no cure

        Like endings with no new start
        Like a life with no purpose
        Like my mind with no more peace

Order:
Intro

Chorus
soft and slow)
Verse
Verse

Chorus
fast and distorted)
Verse
Verse

Chorus
fast and distorted)

Chorus
fast and distorted)