Misc Your Songs - Matt Hare - Metal Head Text Guitar Tab

Learn the song with the online tablature player
Guitar I-(DADGBE)-Distortion
Tempo-Q=120(medium/fast)

    SSSSSSSSSSSSSSSS W  SSSSSSSSSSSSSSSS W  W
|------------------------------------------------|
|------------------------------------------------|
|-o--------------------------------------------o-|
|-o------------------1~------------------1~-3~-o-|
|--------------------1~------------------1~-3~---|
|---0000000000000000-1~-0000000000000000-1~-3~---|

    S S S S S S S S S S S S S S S S S S S S S S S S W
|--------------------------------------------------------|
|--------------------------------------------------------|
|-o----------------------------------------------------o-|
|-o----------------------------------------------------o-|
|--------------------------------------------------------|
|---5-6-5-6-5-6-5-6-3-4-3-4-3-4-3-4-1-2-1-2-1-2-1-2-0~---|

  E E E E B  E E E E B  E E E E B  E E E E B
|---------------------------------------------|
|---------------------------------------------|
|---------------------------------------------|
|---------------------------------------------|
|-7-0-7-0-7~-7-0-7-0-0~-7-0-7-0-7~-7-0-7-0-0~-|
|-7-0-7-0-7~-7-0-7-0-0~-7-0-7-0-7~-7-0-7-0-0~-|

    SSSSSSSSSSSSSSSS W  SSSSSSSSSSSSSSSS W  W
|------------------------------------------------|
|------------------------------------------------|
|-o--------------------------------------------o-|
|-o------------------1~------------------1~-3~-o-|
|--------------------1~------------------1~-3~---|
|---0000000000000000-1~-0000000000000000-1~-3~---|

    S S S S S S S S S S S S S S S S S S S S S S S S W
|--------------------------------------------------------|
|--------------------------------------------------------|
|-o----------------------------------------------------o-|
|-o----------------------------------------------------o-|
|--------------------------------------------------------|
|---5-6-5-6-5-6-5-6-3-4-3-4-3-4-3-4-1-2-1-2-1-2-1-2-0~---|

  E E E E B  E E E E B  E E E E B  E E E E B
|---------------------------------------------|
|---------------------------------------------|
|---------------------------------------------|
|---------------------------------------------|
|-7-0-7-0-7~-7-0-7-0-0~-7-0-7-0-7~-7-0-7-0-0~-|
|-7-0-7-0-7~-7-0-7-0-0~-7-0-7-0-7~-7-0-7-0-0~-|

    E  Q  H      E  Q  H  W     E  Q  H    E  Q  H
|--------------|--------------|----------|---------|
|---14h15-17---|-14h15-17-19~-|-17-15p14-|---------|
|-o----------o-|--------------|----------|-12-10/9-|
|-o----------o-|--------------|----------|---------|
|--------------|--------------|----------|---------|
|--------------|--------------|----------|---------|

 E E E E B  E E E E B  E E E E B  E E E E B
|---------------------------------------------|
|---------------------------------------------|
|---------------------------------------------|
|---------------------------------------------|
|-7-0-7-0-7~-7-0-7-0-0~-7-0-7-0-7~-7-0-7-0-0~-|
|-7-0-7-0-7~-7-0-7-0-0~-7-0-7-0-7~-7-0-7-0-0~-|

  QE QSSS ES H QE QSSS  ES  H  QE QSSS ES H QE QSSS  ES  H
|-----------------------------------------------------------|
|-----------------------------------------------------------|
|-----------------------------------------------------------|
|-----------------------------------------------------------|
|-55-3333-55-6-55-3333-(11)-0~-55-3333-55-6-55-3333-(11)-0~-|
|-55-3333-55-6-55-3333-(11)-0~-55-3333-55-6-55-3333-(11)-0~-|(11)=two 1's

    E E E E E E E E   E E E E E E E E   E E E E E E E E
|-------------------|-----------------|-------------------|
|-------------------|-----------------|-------------------|
|-o-----------------|-----------------|-----------------o-|
|-o-----------------|-----------------|-----------------o-|
|---5-0-3-0-1-0-X-X-|-5-0-3-0-1-0-X-X-|-5-0-3-0-1-0-X-X---|
|---5-0-3-0-1-0-X-X-|-5-0-3-0-1-0-X-X-|-5-0-3-0-1-0-X-X---|

  W+W+W                        W
|-------------------------------------------|
|-------------------------------------------|
|-------------------------------------------|
|-1~---------------------------X------------|
|-1~---------------------------X------------|
|-1~---------------------------X------------|