Misc Your Songs - Nemshick Mike - Light Text Guitar Tab

Learn the song with the online tablature player
im mike  and  i wrote this song hope u like it

distortion
e-------------------------------------------------------------------------
b-------------------------------------------------------------------------
g-------------------------------------------------------------------------
D--9-9-9-9-9-9-9---7-7/1010-12-9-9-9-9-9-9-9-7-7--5--5-7-7-8-8-10-10-10-8- 2x
A--9-9-9-9-9-9-9---7-7/1010-12-9-9-9-9-9-9-9-7-7--5--5-7-7-8-8-10-10-10-8-
E--7-7-7-7-7-7-7---5-5/8-8-10--7-7-7-7-7-7-7-5-5--3--3-5-5-6-6-8-8-8-8-6--

e----------------------------------------
b----------------------------------------
g----------------------------------------
D-7-7----9----12---10--8--7--------------2x
A-7-7----9----12---10--8--7--------------
E-5-5----7----10----8--6--5--------------
         r     r    r     b

solo

e------------------------------------------------
b------------------------------------------------
g------12-12-12-12-12-12-14-14-15-15-15-15-14-12-
D------------------------------------------------

e-------------------------------------------------
b-------------------------------------------14-12-
g------12-12-12-12-12-12-14-14-15-15-15-15--------
D-------------------------------------------------