Misc Your Songs - Never Enough Text Guitar Tab

Learn the song with the online tablature player
  Intro
e|-------------------------------------------------------------------------|
B|-------------------------------------------------------------------------|
G|-----4---5-4-----------------5-4-----------------------------------------|
D|---2---2-----2-------3-----5-----x2--------------------------------------|
A|-0-------------0---3-----5-----------------------------------------------|
D|-----------------3-----5-------------------------------------------------|
   Verse
e|-------------------------------------------------------------------------|
B|-------------------------------------------------------------------------|
G|-4-4-4-4-4-5--5-5-4---------------------5-4------------------------------|
D|-2-2-2-2-2-2--2-2-2-2-3-3-3-3-3--5--5-5------x2--------------------------|
A|-0-0-0-0-0----0-0-0-0-3-3-3-3-3--5--5-5----------------------------------|
D|----------------------3-3-3-3-3--5--5-5----------------------------------|
   Bridge
e|-------------------------------------------------------------------------|
B|-------------------------------------------------------------------------|
G|-------------------------------------------------------------------------|
D|-7~--3~--6~--5~----------------------------------------------------------|
A|-------------------------------------------------------------------------|
D|-------------------------------------------------------------------------|
   Chorus
e|-------------------------------------------------------------------------|
B|-------------------------------------------------------------------------|
G|-------------------------------------------------------------------------|
D|-7-7-7-7-x\3-3-3-3-3-3-x/6-6-6-6-x\5-5-5/10\9-x2-------------------------|
A|-7-7-7-7-x\3-3-3-3-3-3-x/6-6-6-6-x\5-5-5/--------------------------------|
D|-7-7-7-7-x\3-3-3-3-3-3-x/6-6-6-6-x\5-5-5/--------------------------------|
   continued
e|-------------------------------------------------------------------------|
B|-------------------------------------------------------------------------|
G|-------------------------------------------------------------------------|
D|-7~--3~--6~--5~/10\9--7~--3~--6~--5~-------------------------------------|
A|-------------------------------------------------------------------------|
D|-------------------------------------------------------------------------|
   Pro-chorus
e|-------------------------------------------------------------------------|
B|-------------------------------------------------------------------------|
G|-----4---5-4-----------------5-4-----------------------------------------|
D|---2---2-----2-------3-----5-----x2--------------------------------------|
A|-0-------------0---3-----5-----------------------------------------------|
D|-----------------3-----5-------------------------------------------------|

  Verse
e|-------------------------------------------------------------------------|
B|-------------------------------------------------------------------------|
G|-4-4-4-4-4-5--5-5-4---------------------5-4------------------------------|
D|-2-2-2-2-2-2--2-2-2-2-3-3-3-3-3--5--5-5------x2--------------------------|
A|-0-0-0-0-0----0-0-0-0-3-3-3-3-3--5--5-5----------------------------------|
D|----------------------3-3-3-3-3--5--5-5----------------------------------|

  Bridge
e|-------------------------------------------------------------------------|
B|-------------------------------------------------------------------------|
G|-------------------------------------------------------------------------|
D|-7~--3~--6~--5~----------------------------------------------------------|
A|-------------------------------------------------------------------------|
D|-------------------------------------------------------------------------|

  Chorus
e|-------------------------------------------------------------------------|
B|-------------------------------------------------------------------------|
G|-------------------------------------------------------------------------|
D|-7-7-7-7-x\3-3-3-3-3-3-x/6-6-6-6-x\5-5-5/10\9----------------------------|
A|-7-7-7-7-x\3-3-3-3-3-3-x/6-6-6-6-x\5-5-5/-------x2-----------------------|
D|-7-7-7-7-x\3-3-3-3-3-3-x/6-6-6-6-x\5-5-5/--------------------------------|

  Outro
e|-------------------------------------------------------------------------|
B|-------------------------------------------------------------------------|
G|-------------------------------------------------------------------------|
D|-7~--3~--6~--5~----------------------------------------------------------|
A|-------------------------------------------------------------------------|
D|-------------------------------------------------------------------------|

   hope you guys like it. the only thing i don't have in there is a solo, which i
might post later in a different tab. but we'll see. the lyrics are below, it's
pretty self explanitory where the lyrics fit in with the music above. enjoy!

Never Enough

Verse
Sitting here alone again
I wonder what I've done wrong
What did I do
To make you be gone?

Is it my crooked smile?
Or how I'd always call?
Is it everything about me?
Or nothing at all?

Bridge
Cuz you've left me wonderin...

Chorus
Was I ever enough
To keep you comin home?
Was I everything you needed?
Then why'd you leave me alone?
And I'm fallin to pieces
And wonderin why
I was never enough
And you said goodbye

Verse
Now that I'm alone again
I've thought about what's wrong
With me and my broken heart
And my love that's so strong

Was is that I cared too much
'Bout the fact you didn't call?
Was it everything about me?
Or nothing at all?

Bridge
Cuz you've left me wonderin...

Chorus
Was I ever enough
To keep you comin home?
Was I everything you needed?
Then why'd you leave me alone?
And I'm fallin to pieces
And wonderin why
I was never enough
And you said goodbye
(x2)

Outro
I was never enough
And you said goodbye

| /  slide up
| \  slide down
| h  hammer-on
| p  pull-off
| ~  vibrato
| +  harmonic
| x  Mute note