Misc Your Songs - Nirvana Godsmak Text Guitar Tab

Learn the song with the online tablature player
I dunno why im even posting this... it sounds like nirvana sorta.. its to the beat of
smells like teen spirit.. if you know how to play power chords this is ez as hell..
thats all i have to say...

Intro/Chorus
E-----------------------------------------------------------------
B-----------------------------------------------------------------
G------------8-8-------------6-6-------------4-4-------------6-6--
D--8--8-8-xx-8-8-x-6--6-6-xx-6-6-x-4--4-4-xx-4-4-x-6--6-6-xx-6-6--
A--8--8-8-xx-6-6-x-6--6-6-xx-4-4-x-4--4-4-xx-2-2-x-6--6-6-xx-4-4--
D--6--6-6-xx-6-6-x-4--4-4-xx-4-4-x-2--2-2-xx-2-2-x-4--4-4-xx-4-4--

Bridge
E-----------------------------------------------------------------
B-----------------------------------------------------------------
G-----------------------------------------------------------------
D--8--8-8-xx-6-6-x-4--4-4-xx-6-6-x--------------------------------
A--8--8-8-xx-6-6-x-4--4-4-xx-6-6-x--------------------------------
D--6--6-6-xx-4-4-x-2--2-2-xx-4-4-x--------------------------------

Solo
E-----------------------------------------------------------------
B-----------------------------------------------------------------
G-----------------------------------------------------------------
D------8--------6--------4--------6-------------------------------
A--8-8---8--6-6---6--4-4---4--6-6---6-----------------------------
D--6--------4--------2--------4-----------------------------------

Intro    x2
Bridge   x2
Solo     x2
Bridge   x1
Chorus   x2
Solo     x1
Chorus   x1
Bridge   x3 3rd time slower and let ring.