Misc Your Songs - Outdone Text Guitar Tab

Learn the song with the online tablature player
Intro1
Clean with Flanger

---------6---------6------------------------------------------------
-44-5-4-----4-5-4-----4--7p4-5p4--x4 last time with distortion------

Intro2
Distortion
-2-2-2-2---4-----------0-0-0-0---5-----------2-2-2-2--4--------5s7~-

Bridge
Distortion w/ Flanger
--------------------------------------|--------------------|----------
--------------------------------------|--------------------|----------
---------6----------6-----9s6--7s6----|--2--------2-2-2----|----------
-44-5-4-----44-5-4-----4--7s4--5s4-x2-|--0-xx--0--0-0-0--x2|---x4-----
--------------------------------------|--0-xx--0--0-0-0----|----------
--------------------------------------|--------0-----------|----------

Outro
Distortion
--4-4-(4)(4)(4)-4-4-(4)(4)-0-0----------------------------------------