Misc Your Songs - Paliew Shawn - Plague Of The Undead Text Guitar Tab

Learn the song with the online tablature player
    X3     X2
  <-----> <->
A|2--2---|-2-|
D|-2---2-|-2-|
G|--3-3--|-3-|

    X6
  <------>
G|-----14-|
B|15-12---|

Chorus
              X4  X6  X4
              <-> <-> <->
            E|-0-|-6-|-5-|
    X8      A|-2-|-8-|-7-|
  <-------> D|-2-|-8-|-7-|
G|----10-8-|
B|10-8-----|

Solo
E|10-----------5--0h2--11--11-13-15-17--------|
A|--8------8s6--4-----9---------------16------|
D|---10-9-7---4--3-------13-------------14-17-|

D|----11------13---------------------1s3-----|
G|11------13----------------5-6---0-3---0h2--|
B|--13------15---11s9-10-8-9---4-2---------3-|

Verse
E|111111-333333-000000-|
A|333333-555555-222222-|
D|333333-555555-222222-|

Outro
      X2          X4
  <-----------> <------>
D|8------------|4-----5-|
G|-7h8-7h8-7h8-|-5---4--|
B|-------------|--4-5---|

   X3
  <------->
E|8------8-|
A|-7--7----|
D|--6--6---|
G|---8--8--|

Order
Intro X4
Chorus X2
Solo
Verse X3
Outro

Lyrics

Intro
Infected with the sickness
Rising only when the sun goes down
Taking blood to sustain your cursed existence
Cursed with immortality

Chorus
Plague of the undead
Among the living
Taste of blood consumes your will
War for eternity
Vampire against vampire
For the chance to feast on the living
Brothers and sisters bound by an ancient bloodline

Guitar Solo

Verse
Blood drinkers despair
Your slayer is coming
Rising from the fog of history
Sands of time have run out for your kind
Children die at the hands of their mother

Chorus
Plague of the undead
Among the living
Taste of blood consumes your will
War for eternity
Vampire against vampire
For the chance to feast on the living
Brothers and sisters bound by an ancient bloodline