Misc Your Songs - Philippe Salmon - Eternity Text Guitar Tab

Learn the song with the online tablature player
ETERNITY ( too long for us ?)

Composed in 2006 by Philippe Salmon

Piste 1
                       LET RING
     E  E  E  E  E  E  E        E     E  E  E  E  E  E  E  E
E||--------------------------------|--------------------------|
B||-----------1--------------------|-----------1--------------|
G||--------2-----2-----------------|--------2-----2-----------|
D||-----3-----------3-----------3--|-----3-----------3-----3--|
A||--0-----------------0-----------|--0-----------------0-----|
E||--------------------------------|--------------------------|

  E  E  E  E  E  E  E  E     E  E  E  E  E  E  E  E
--------------------------|--------------------------|
-----------3--------------|-----------3--------------|
--------4-----4-----------|--------4-----4-----------|
-----5-----------5-----5--|-----5-----------5-----5--|
--0-----------------0-----|--0-----------------0-----|
--------------------------|--------------------------|

  E  E  E  E  E  E  E  E     E  E  E  E  E  E  E  E
--------------------------|--------------------------|
-----------4--------------|-----------4--------------|
--------5-----5-----------|--------5-----5-----------|
-----4-----------4-----4--|-----4-----------4-----4--|
--0-----------------0-----|--0-----------------0-----|
--------------------------|--------------------------|

  E  E  E  E  E  E  E  E     E  E  E  E  E  E  E  E
--------------------------|--------------------------|
-----------5--------------|-----------5--------------|
--------6-----6-----------|--------6-----6-----------|
-----7-----------7-----7--|-----7-----------7-----7--|
--0-----------------0-----|--0-----------------0-----|
--------------------------|--------------------------|

  E  E  E  E  E  E  E  E     E  E  E  E  E  E  E  E
--------------------------|--------------------------|
-----------4--------------|-----------4--------------|
--------5-----5-----------|--------5-----5-----------|
-----4-----------4-----4--|-----4-----------4-----4--|
--0-----------------0-----|--0-----------------0-----|
--------------------------|--------------------------|

  E  E  E  E  E  E  E  E     E  E  E  E  E  E  E  E
--------------------------|--------------------------|
-----------5--------------|-----------5--------------|
--------6-----6-----------|--------6-----6-----------|
-----7-----------7-----7--|-----7-----------7-----7--|
--0-----------------0-----|--0-----------------0-----|
--------------------------|--------------------------|

  S S E  E  E  E  E  E  E     E  E  E  E  E  E  E  E
---------------------------|--------------------------|
--5-7-5--------0--5--------|-----------3--------------|
---------6-----------6-----|--------4-----4-----------|
------------7-----------7--|-----5-----------5-----5--|
--0------------0-----------|--0-----------------0-----|
---------------------------|--------------------------|

  E  E  E  E  E  E  E  E     E  E  E  E  E  E  E  E
-----------3--------------|--------------------------|
--5-----------5-----------|-----------1--------------|
-----4-----------4-----4--|--------2-----2-----------|
--------5-----------5-----|-----3-----------3-----3--|
--------------------------|--0-----------------0-----|
--------------------------|--------------------------|

                                   Slow down
  |----3----|    |----3----|
  Q    Q    Q    Q    Q    Q       E         E  E  E  E  E  E  E
--------------------------------|---------------------------------|
--5----3----1----0----1----0----|------------------1-----------1--|
-------4----2----0----2----0----|---------------0-----------0-----|
--7----5----3----0----3----0----|------------2-----------0--------|
--------------------------------|--3------------------2-----------|
--------------------------------|---------------------------------|

  E  E  E  E  E  E  E  E     E  E  E  E  E  E  E  E     E  E  E  E  B
--------------------------|--------------------------|--------------0--------|
-----------1-----------1--|-----------1-----------1--|-----------0--0--------|
--------0-----------0-----|--------2-----------2-----|--------0--------------|
-----2-----------2--------|-----0-----------0--------|-----0-----------------|
--0-----------------------|--------------------------|-----------------------|
--------------3-----------|--2-----------2-----------|--3--------------------|

                       A tempo                Let ring
  B        B           E       E  E  E  E  E  E        E
--------------------|-------------------------------------|
--3-----------------|----------------1--------------------|
--------------------|-------------2-----2-----------------|
--------------------|----------3-----------3-----------3--|
--------------------|--0----------------------0-----------|
--------------------|-------------------------------------|

  E  E  E  E  E  E  E  E     E  E  E  E  E  E  E  E
--------------------------|--------------------------|
-----------1--------------|-----------3--------------|
--------2-----2-----------|--------4-----4-----------|
-----3-----------3-----3--|-----5-----------5-----5--|
--0-----------------0-----|--0-----------------0-----|
--------------------------|--------------------------|

  E  E  E  E  E  E  E  E     E  E  E  E  E  E  E  E
--------------------------|--------------------------|
-----------3--------------|-----------4--------------|
--------4-----4-----------|--------5-----5-----------|
-----5-----------5-----5--|-----4-----------4-----4--|
--0-----------------0-----|--0-----------------0-----|
--------------------------|--------------------------|

  E  E  E  E  E  E  E  E     E  E  E  E  E  E  E  E
--------------------------|--------------------------|
-----------4--------------|-----------5--------------|
--------5-----5-----------|--------6-----6-----------|
-----4-----------4-----4--|-----7-----------7-----7--|
--0-----------------0-----|--0-----------------0-----|
--------------------------|--------------------------|

  E  E  E  E  E  E  E  E     E  E  E  E  E  E  E  E
--------------------------|--------------------------|
-----------5--------------|-----------4--------------|
--------6-----6-----------|--------5-----5-----------|
-----7-----------7-----7--|-----4-----------4-----4--|
--0-----------------0-----|--0-----------------0-----|
--------------------------|--------------------------|

  E  E  E  E  E  E  E  E     E  E  E  E  E  E  E  E
--------------------------|--------------------------|
-----------4--------------|-----------5--------------|
--------5-----5-----------|--------6-----6-----------|
-----4-----------4-----4--|-----7-----------7-----7--|
--0-----------------0-----|--0-----------------0-----|
--------------------------|--------------------------|

  E  E  E  E  E  E  E  E     S S E  E  E  E  E  E  E
--------------------------|---------------------------|
-----------5--------------|--5-7-5--------0--5--------|
--------6-----6-----------|---------6-----------6-----|
-----7-----------7-----7--|------------7-----------7--|
--0-----------------0-----|--0------------0-----------|
--------------------------|---------------------------|

  E  E  E  E  E  E  E  E     E  E  E  E  E  E  E  E
--------------------------|-----------3--------------|
-----------3--------------|--5-----------5-----------|
--------4-----4-----------|-----4-----------4-----4--|
-----5-----------5-----5--|--------5-----------5-----|
--0-----------------0-----|--------------------------|
--------------------------|--------------------------|

                             |----3----|    |----3----|
  E  E  E  E  E  E  E  E     Q    Q    Q    Q    Q    Q
--------------------------|--------------------------------|
-----------1--------------|--5----3----1----0----1----0----|
--------2-----2-----------|-------4----2----0----2----0----|
-----3-----------3-----3--|--7----5----3----0----3----0----|
--0-----------------0-----|--------------------------------|
--------------------------|--------------------------------|

  SLOW DOWN
  E         E  E  E  E  E  E  E     E  E  E  E  E  E  E  E
---------------------------------|--------------------------|
------------------1-----------1--|-----------1-----------1--|
---------------0-----------0-----|--------0-----------0-----|
------------2-----------0--------|-----2-----------2--------|
--3------------------2-----------|--0-----------------------|
---------------------------------|--------------3-----------|

  E  E  E  E  E  E  E  E     E  E  E  E  H           W
--------------------------|--------------0--------|-------------------||
-----------1-----------1--|-----------0--0--------|--3----------------||
--------2-----------2-----|--------0--------------|-------------------||
-----0-----------0--------|-----0-----------------|-------------------||
--------------------------|-----------------------|-------------------||
--2-----------2-----------|--3--------------------|-------------------||

Duration Legend

W - whole
H - half
Q - quarter
E - 8th
S - 16th
T - 32nd
X - 64th
. - note dotted
|-n-|  - n-tuplets

L - tied note
x - dead note
g - grace note
(n) - ghost note
> - accentuded note
NH - natural harmonic
AH - artificial harmonic
TH - tapped harmonic
SH - semi harmonic
PH - pitch harmonic
h - hammer on
p - pull off
b - bend
br - bendRelease
pb - preBend
pbr - preBendRelease
brb - bendReleaseBend
\n/ - tremolo bar dip
\n - tremolo bar dive
-/n - tremolo bar Release up
/n\ - tremolo bar inverted dip
/n - tremolo bar return
-\n - tremolo bar Release down
S - shift slide
s - legato slide
/ -  slide into from below or out of upwards
\ -  slide into from above or out of downwards
~ - vibrato
W - wide vibrato
tr - trill
TP - tremolo picking
T - tapping
S - slap
P - pop
< - fade in
^ - brush up
v - brush down