Misc Your Songs - Ryan - Parachute Text Guitar Tab

Learn song with the online tabulature player
Ok, this song has lyrics, but you can do pretty much whatever you want with it. It's
pretty much just a maj7th chord (with an added 3rd while strumming), and then the 4th
degree maj7th of whatever chord you first played (I happen to like G, so I use a C next).
You can do 2 min7th chords if you want, but that just sounds depressing. I just put the
basic form of the first two measures, it sounds pretty good if you syncopate it or throw
in a bend here or there.

But anyway, feel free to do whatever you want with it...except claim it as your own. If
you do that you'll die poor and lonely.

-------------------------------------------------------------------------------
                             Parachute
-------------------------------------------------------------------------------
Tabbed by: Ryan
Email: musiciannameddave@earthlink.net

Tuning: Standard

e|--------------------------|---------------------------------|
B|--------------------------|---------------------------------|
G|---------4--------4---4--|---------4--------4---4-----------|
D|----2h4------2h4---------|----0h2------0h2------------------|
A|--------------------------|--2--------2-------2-------------|
E|--3---------3-------3-----|---------------------------------| x2

e|------------------|-----------------------|
B|------------------|-----------------------|
G|--4--444-4-4444--|--4--444-44-4444--------|
D|--4--444-4-4444--|--2--222-22-2222--------|
A|--2--222-2-2222--|--3--333-33-3333--------|
E|--3--333-3-3333--|--0--000-00-0000--------| x2

e|--------------------------|---------------------------------|
B|--------------------------|---------------------------------|
G|---------4--------4---4--|---------4--------4---4-----------|
D|----2h4------2h4---------|----0h2------0h2------------------|
A|--------------------------|--2--------2-------2-------------|
E|--3---------3-------3-----|---------------------------------| x2

e|-----------------|-----------------|---------------------|--------------------|
B|-----------------|-----------------|---------------------|--------------------|
G|--4-4444-X-444--|--4-4444-X-444--|--4--4444-X-4444----|--4--4444-X-4444-------|
D|--0-0000-X-000--|--4-4444-X-444--|--0--0000-X-0000----|--4--4444-X-4444-------|
A|--2-2222-X-222--|--2-2222-X-222--|--3--3333-X-3333----|--3--3333-X-3333-------|
E|--3-3333-X-333--|--3-3333-X-333--|--0--0000-X-0000----|--0--0000-X-0000-------| x4

e|------------------------|-------------------|------------------|--strum-slowly-V---|
B|------------------------|-------------------|------------------|-------------------|
G|--12======-11=====-|-----7~~--------12-|-----10-------11-|---4--------4-4----------|
D|----11-12-11---9-11-9-|----9----9-----9----|---7--------9----|--0-------0---0------|
A|--10======--9=====-|--7-------7/10------|-5------5/7-----|-3----3--------0---------|
E|-----------------------|---------------------|----------------|----------3----3----|

e|-----------------|-----------------|---------------------|--------------------|
B|-----------------|-----------------|---------------------|--------------------|
G|--4-4444-X-444--|--4-4444-X-444--|--4--4444-X-4444----|--4--4444-X-4444-------|
D|--0-0000-X-000--|--4-4444-X-444--|--0--0000-X-0000----|--4--4444-X-4444-------|
A|--2-2222-X-222--|--2-2222-X-222--|--3--3333-X-3333----|--3--3333-X-3333-------|
E|--3-3333-X-333--|--3-3333-X-333--|--0--0000-X-0000----|--0--0000-X-0000-------| x4

e|--------------------------|---------------------------------|
B|--------------------------|---------------------------------|
G|---------4--------4---4--|---------4--------4---4-----------|
D|----2h4------2h4---------|----0h2------0h2------------------|
A|--------------------------|--2--------2-------2-------------|
E|--3---------3-------3-----|---------------------------------| x2


| = let ring
| /  slide up
| \  slide down
| h  hammer-on
| p  pull-off
| ~  vibrato
| +  harmonic
| x  Mute note
===============================================================================